ISO-10303-21;
HEADER;
FILE_DESCRIPTION (( 'STEP AP214' ),
    '1' );
FILE_NAME ('Z94.ER1.003.035.STEP',
    '2021-03-31T07:48:09',
    ( '' ),
    ( '' ),
    'SwSTEP 2.0',
    'SolidWorks 2017',
    '' );
FILE_SCHEMA (( 'AUTOMOTIVE_DESIGN' ));
ENDSEC;

DATA;
#1 = DIRECTION ( 'NONE',  ( 0.0000000000000000000, 0.0000000000000000000, -1.000000000000000000 ) ) ;
#2 = ORIENTED_EDGE ( 'NONE', *, *, #98, .T. ) ;
#3 = CYLINDRICAL_SURFACE ( 'NONE', #120, 8.500000000000000000 ) ;
#4 = CARTESIAN_POINT ( 'NONE',  ( 0.0000000000000000000, 0.0000000000000000000, 0.0000000000000000000 ) ) ;
#5 = AXIS2_PLACEMENT_3D ( 'NONE', #4, #48, #203 ) ;
#6 = VERTEX_POINT ( 'NONE', #182 ) ;
#7 = EDGE_LOOP ( 'NONE', ( #159, #72, #31, #185 ) ) ;
#8 = CIRCLE ( 'NONE', #124, 17.00000000000000000 ) ;
#9 =( NAMED_UNIT ( * ) PLANE_ANGLE_UNIT ( ) SI_UNIT ( $, .RADIAN. ) );
#10 = FACE_OUTER_BOUND ( 'NONE', #122, .T. ) ;
#11 = EDGE_LOOP ( 'NONE', ( #27, #173 ) ) ;
#12 = CARTESIAN_POINT ( 'NONE',  ( 0.0000000000000000000, 0.0000000000000000000, 0.0000000000000000000 ) ) ;
#13 = VERTEX_POINT ( 'NONE', #184 ) ;
#14 = LINE ( 'NONE', #140, #146 ) ;
#15 = ORIENTED_EDGE ( 'NONE', *, *, #132, .F. ) ;
#16 =( GEOMETRIC_REPRESENTATION_CONTEXT ( 3 ) GLOBAL_UNCERTAINTY_ASSIGNED_CONTEXT ( ( #112 ) ) GLOBAL_UNIT_ASSIGNED_CONTEXT ( ( #171, #9, #82 ) ) REPRESENTATION_CONTEXT ( 'NONE', 'WORKASPACE' ) );
#17 = VERTEX_POINT ( 'NONE', #201 ) ;
#18 = CARTESIAN_POINT ( 'NONE',  ( -1.800000000000000700, 17.00000000000000000, 0.0000000000000000000 ) ) ;
#19 = SURFACE_STYLE_USAGE ( .BOTH. , #162 ) ;
#20 = STYLED_ITEM ( 'NONE', ( #74 ), #176 ) ;
#21 = SURFACE_SIDE_STYLE ('',( #90 ) ) ;
#22 = DIRECTION ( 'NONE',  ( 1.000000000000000000, -0.0000000000000000000, -0.0000000000000000000 ) ) ;
#23 = EDGE_CURVE ( 'NONE', #80, #131, #8, .T. ) ;
#24 = DIRECTION ( 'NONE',  ( 1.000000000000000000, -0.0000000000000000000, -0.0000000000000000000 ) ) ;
#25 = CIRCLE ( 'NONE', #143, 8.499999999999998200 ) ;
#26 = DIRECTION ( 'NONE',  ( 0.0000000000000000000, 0.0000000000000000000, -1.000000000000000000 ) ) ;
#27 = ORIENTED_EDGE ( 'NONE', *, *, #63, .T. ) ;
#28 = DIRECTION ( 'NONE',  ( 1.000000000000000000, -0.0000000000000000000, -0.0000000000000000000 ) ) ;
#29 = VECTOR ( 'NONE', #174, 1000.000000000000000 ) ;
#30 = CARTESIAN_POINT ( 'NONE',  ( -1.800000000000001200, 0.0000000000000000000, 0.0000000000000000000 ) ) ;
#31 = ORIENTED_EDGE ( 'NONE', *, *, #36, .F. ) ;
#32 =( NAMED_UNIT ( * ) PLANE_ANGLE_UNIT ( ) SI_UNIT ( $, .RADIAN. ) );
#33 = EDGE_CURVE ( 'NONE', #51, #6, #183, .T. ) ;
#34 = FACE_OUTER_BOUND ( 'NONE', #7, .T. ) ;
#35 = DIRECTION ( 'NONE',  ( 1.000000000000000000, 0.0000000000000000000, 0.0000000000000000000 ) ) ;
#36 = EDGE_CURVE ( 'NONE', #17, #13, #69, .T. ) ;
#37 = FILL_AREA_STYLE ('',( #207 ) ) ;
#38 = DIRECTION ( 'NONE',  ( 1.000000000000000000, -0.0000000000000000000, -0.0000000000000000000 ) ) ;
#39 = SURFACE_STYLE_USAGE ( .BOTH. , #21 ) ;
#40 = ORIENTED_EDGE ( 'NONE', *, *, #55, .T. ) ;
#41 = CARTESIAN_POINT ( 'NONE',  ( -2.602085213965210600E-015, 0.0000000000000000000, 0.0000000000000000000 ) ) ;
#42 = CARTESIAN_POINT ( 'NONE',  ( -1.799999999999999600, 0.0000000000000000000, 0.0000000000000000000 ) ) ;
#43 = DIRECTION ( 'NONE',  ( 0.0000000000000000000, 0.0000000000000000000, -1.000000000000000000 ) ) ;
#44 = LINE ( 'NONE', #70, #29 ) ;
#45 = DIRECTION ( 'NONE',  ( 0.0000000000000000000, 0.0000000000000000000, -1.000000000000000000 ) ) ;
#46 = VECTOR ( 'NONE', #110, 1000.000000000000000 ) ;
#47 = EDGE_LOOP ( 'NONE', ( #180, #125 ) ) ;
#48 = DIRECTION ( 'NONE',  ( 1.000000000000000000, -0.0000000000000000000, -0.0000000000000000000 ) ) ;
#49 = AXIS2_PLACEMENT_3D ( 'NONE', #81, #189, #35 ) ;
#50 =( NAMED_UNIT ( * ) PLANE_ANGLE_UNIT ( ) SI_UNIT ( $, .RADIAN. ) );
#51 = VERTEX_POINT ( 'NONE', #65 ) ;
#52 = SURFACE_STYLE_FILL_AREA ( #161 ) ;
#53 = ORIENTED_EDGE ( 'NONE', *, *, #55, .F. ) ;
#54 = CARTESIAN_POINT ( 'NONE',  ( 7.206746031746035900, 0.0000000000000000000, 0.0000000000000000000 ) ) ;
#55 = EDGE_CURVE ( 'NONE', #136, #6, #14, .T. ) ;
#56 = CARTESIAN_POINT ( 'NONE',  ( -2.602085213965210600E-015, 0.0000000000000000000, 0.0000000000000000000 ) ) ;
#57 = DIRECTION ( 'NONE',  ( 1.000000000000000000, -0.0000000000000000000, -0.0000000000000000000 ) ) ;
#58 = DIRECTION ( 'NONE',  ( 0.0000000000000000000, 0.0000000000000000000, -1.000000000000000000 ) ) ;
#59 = ORIENTED_EDGE ( 'NONE', *, *, #111, .F. ) ;
#60 = FILL_AREA_STYLE_COLOUR ( '', #77 ) ;
#61 = CYLINDRICAL_SURFACE ( 'NONE', #73, 8.500000000000000000 ) ;
#62 = ADVANCED_FACE ( 'NONE', ( #96 ), #104, .T. ) ;
#63 = EDGE_CURVE ( 'NONE', #136, #119, #199, .T. ) ;
#64 = DIRECTION ( 'NONE',  ( 0.0000000000000000000, 0.0000000000000000000, 1.000000000000000000 ) ) ;
#65 = CARTESIAN_POINT ( 'NONE',  ( 0.0000000000000000000, 1.040949779275250100E-015, 8.500000000000000000 ) ) ;
#66 = FACE_OUTER_BOUND ( 'NONE', #47, .T. ) ;
#67 = APPLICATION_CONTEXT ( 'automotive_design' ) ;
#68 = DIRECTION ( 'NONE',  ( 0.0000000000000000000, 0.0000000000000000000, -1.000000000000000000 ) ) ;
#69 = CIRCLE ( 'NONE', #118, 17.00000000000000000 ) ;
#70 = CARTESIAN_POINT ( 'NONE',  ( 7.206746031746035900, 1.040949779275250100E-015, 8.500000000000000000 ) ) ;
#71 = CARTESIAN_POINT ( 'NONE',  ( 7.206746031746035900, 0.0000000000000000000, 0.0000000000000000000 ) ) ;
#72 = ORIENTED_EDGE ( 'NONE', *, *, #208, .T. ) ;
#73 = AXIS2_PLACEMENT_3D ( 'NONE', #157, #24, #43 ) ;
#74 = PRESENTATION_STYLE_ASSIGNMENT (( #39 ) ) ;
#75 = SHAPE_DEFINITION_REPRESENTATION ( #107, #176 ) ;
#76 = PRODUCT ( 'Z94.ER1.003.035', 'Z94.ER1.003.035', '', ( #148 ) ) ;
#77 = COLOUR_RGB ( '',0.6470588235294118000, 0.6196078431372549200, 0.5882352941176470800 ) ;
#78 = ORIENTED_EDGE ( 'NONE', *, *, #127, .F. ) ;
#79 = ADVANCED_FACE ( 'NONE', ( #34 ), #187, .T. ) ;
#80 = VERTEX_POINT ( 'NONE', #211 ) ;
#81 = CARTESIAN_POINT ( 'NONE',  ( 0.0000000000000000000, 0.0000000000000000000, 0.0000000000000000000 ) ) ;
#82 =( NAMED_UNIT ( * ) SI_UNIT ( $, .STERADIAN. ) SOLID_ANGLE_UNIT ( ) );
#83 = CLOSED_SHELL ( 'NONE', ( #79, #121, #165, #138, #62, #206 ) ) ;
#84 = DIRECTION ( 'NONE',  ( 1.000000000000000000, -0.0000000000000000000, -0.0000000000000000000 ) ) ;
#85 = AXIS2_PLACEMENT_3D ( 'NONE', #12, #28, #45 ) ;
#86 = DIRECTION ( 'NONE',  ( 1.000000000000000000, -0.0000000000000000000, -0.0000000000000000000 ) ) ;
#87 = FACE_OUTER_BOUND ( 'NONE', #150, .T. ) ;
#88 = ORIENTED_EDGE ( 'NONE', *, *, #132, .T. ) ;
#89 = LINE ( 'NONE', #212, #178 ) ;
#90 = SURFACE_STYLE_FILL_AREA ( #37 ) ;
#91 = PRODUCT_RELATED_PRODUCT_CATEGORY ( 'part', '', ( #76 ) ) ;
#92 =( NAMED_UNIT ( * ) SI_UNIT ( $, .STERADIAN. ) SOLID_ANGLE_UNIT ( ) );
#93 = CIRCLE ( 'NONE', #147, 17.00000000000000000 ) ;
#94 = PLANE ( 'NONE',  #172 ) ;
#95 = ORIENTED_EDGE ( 'NONE', *, *, #113, .T. ) ;
#96 = FACE_OUTER_BOUND ( 'NONE', #188, .T. ) ;
#97 = EDGE_LOOP ( 'NONE', ( #15, #191 ) ) ;
#98 = EDGE_CURVE ( 'NONE', #119, #51, #44, .T. ) ;
#99 = CARTESIAN_POINT ( 'NONE',  ( -1.799999999999999600, 0.0000000000000000000, -8.499999999999998200 ) ) ;
#100 = DIRECTION ( 'NONE',  ( 1.000000000000000000, -0.0000000000000000000, -0.0000000000000000000 ) ) ;
#101 = FACE_BOUND ( 'NONE', #97, .T. ) ;
#102 = ORIENTED_EDGE ( 'NONE', *, *, #113, .F. ) ;
#103 = PRESENTATION_LAYER_ASSIGNMENT (  '', '', ( #193 ) ) ;
#104 = CYLINDRICAL_SURFACE ( 'NONE', #137, 17.00000000000000000 ) ;
#105 = EDGE_CURVE ( 'NONE', #80, #17, #89, .T. ) ;
#106 = DIRECTION ( 'NONE',  ( 1.000000000000000000, -0.0000000000000000000, -0.0000000000000000000 ) ) ;
#107 = PRODUCT_DEFINITION_SHAPE ( 'NONE', 'NONE',  #190 ) ;
#108 = DIRECTION ( 'NONE',  ( 0.0000000000000000000, 0.0000000000000000000, -1.000000000000000000 ) ) ;
#109 = CARTESIAN_POINT ( 'NONE',  ( 7.206746031746035900, 2.081899558550500300E-015, 17.00000000000000000 ) ) ;
#110 = DIRECTION ( 'NONE',  ( 1.000000000000000000, -0.0000000000000000000, -0.0000000000000000000 ) ) ;
#111 = EDGE_CURVE ( 'NONE', #119, #136, #25, .T. ) ;
#112 = UNCERTAINTY_MEASURE_WITH_UNIT (LENGTH_MEASURE( 1.000000000000000100E-005 ), #171, 'distance_accuracy_value', 'NONE');
#113 = EDGE_CURVE ( 'NONE', #131, #80, #93, .T. ) ;
#114 = ORIENTED_EDGE ( 'NONE', *, *, #23, .F. ) ;
#115 = PLANE ( 'NONE',  #181 ) ;
#116 = ORIENTED_EDGE ( 'NONE', *, *, #98, .F. ) ;
#117 = UNCERTAINTY_MEASURE_WITH_UNIT (LENGTH_MEASURE( 1.000000000000000100E-005 ), #142, 'distance_accuracy_value', 'NONE');
#118 = AXIS2_PLACEMENT_3D ( 'NONE', #56, #38, #68 ) ;
#119 = VERTEX_POINT ( 'NONE', #133 ) ;
#120 = AXIS2_PLACEMENT_3D ( 'NONE', #186, #167, #123 ) ;
#121 = ADVANCED_FACE ( 'NONE', ( #87 ), #61, .F. ) ;
#122 = EDGE_LOOP ( 'NONE', ( #114, #102 ) ) ;
#123 = DIRECTION ( 'NONE',  ( 0.0000000000000000000, 0.0000000000000000000, -1.000000000000000000 ) ) ;
#124 = AXIS2_PLACEMENT_3D ( 'NONE', #30, #106, #108 ) ;
#125 = ORIENTED_EDGE ( 'NONE', *, *, #127, .T. ) ;
#126 = APPLICATION_CONTEXT ( 'automotive_design' ) ;
#127 = EDGE_CURVE ( 'NONE', #13, #17, #139, .T. ) ;
#128 = CARTESIAN_POINT ( 'NONE',  ( -1.800000000000001200, 0.0000000000000000000, 0.0000000000000000000 ) ) ;
#129 = CARTESIAN_POINT ( 'NONE',  ( -1.799999999999999600, 0.0000000000000000000, 0.0000000000000000000 ) ) ;
#130 = FACE_BOUND ( 'NONE', #11, .T. ) ;
#131 = VERTEX_POINT ( 'NONE', #158 ) ;
#132 = EDGE_CURVE ( 'NONE', #6, #51, #194, .T. ) ;
#133 = CARTESIAN_POINT ( 'NONE',  ( -1.799999999999999600, 1.040949779275249900E-015, 8.499999999999998200 ) ) ;
#134 = COLOUR_RGB ( '',0.6470588235294118000, 0.6196078431372549200, 0.5882352941176470800 ) ;
#135 = DIRECTION ( 'NONE',  ( -0.0000000000000000000, 0.0000000000000000000, -1.000000000000000000 ) ) ;
#136 = VERTEX_POINT ( 'NONE', #99 ) ;
#137 = AXIS2_PLACEMENT_3D ( 'NONE', #71, #192, #214 ) ;
#138 = ADVANCED_FACE ( 'NONE', ( #66, #101 ), #115, .T. ) ;
#139 = CIRCLE ( 'NONE', #163, 17.00000000000000000 ) ;
#140 = CARTESIAN_POINT ( 'NONE',  ( 7.206746031746035900, 0.0000000000000000000, -8.500000000000000000 ) ) ;
#141 = EDGE_LOOP ( 'NONE', ( #116, #210, #40, #88 ) ) ;
#142 =( LENGTH_UNIT ( ) NAMED_UNIT ( * ) SI_UNIT ( .MILLI., .METRE. ) );
#143 = AXIS2_PLACEMENT_3D ( 'NONE', #129, #156, #58 ) ;
#144 =( LENGTH_UNIT ( ) NAMED_UNIT ( * ) SI_UNIT ( .MILLI., .METRE. ) );
#145 = DIRECTION ( 'NONE',  ( -1.000000000000000000, 0.0000000000000000000, 0.0000000000000000000 ) ) ;
#146 = VECTOR ( 'NONE', #22, 1000.000000000000000 ) ;
#147 = AXIS2_PLACEMENT_3D ( 'NONE', #128, #57, #175 ) ;
#148 = PRODUCT_CONTEXT ( 'NONE', #126, 'mechanical' ) ;
#149 =( GEOMETRIC_REPRESENTATION_CONTEXT ( 3 ) GLOBAL_UNCERTAINTY_ASSIGNED_CONTEXT ( ( #117 ) ) GLOBAL_UNIT_ASSIGNED_CONTEXT ( ( #142, #50, #166 ) ) REPRESENTATION_CONTEXT ( 'NONE', 'WORKASPACE' ) );
#150 = EDGE_LOOP ( 'NONE', ( #59, #2, #205, #53 ) ) ;
#151 = APPLICATION_PROTOCOL_DEFINITION ( 'draft international standard', 'automotive_design', 1998, #67 ) ;
#152 = APPLICATION_PROTOCOL_DEFINITION ( 'draft international standard', 'automotive_design', 1998, #126 ) ;
#153 = MANIFOLD_SOLID_BREP ( 'Rotation1', #83 ) ;
#154 = DIRECTION ( 'NONE',  ( 1.000000000000000000, -0.0000000000000000000, -0.0000000000000000000 ) ) ;
#155 = AXIS2_PLACEMENT_3D ( 'NONE', #42, #86, #26 ) ;
#156 = DIRECTION ( 'NONE',  ( 1.000000000000000000, -0.0000000000000000000, -0.0000000000000000000 ) ) ;
#157 = CARTESIAN_POINT ( 'NONE',  ( 7.206746031746035900, 0.0000000000000000000, 0.0000000000000000000 ) ) ;
#158 = CARTESIAN_POINT ( 'NONE',  ( -1.800000000000001200, 2.081899558550500300E-015, 17.00000000000000000 ) ) ;
#159 = ORIENTED_EDGE ( 'NONE', *, *, #23, .T. ) ;
#160 = MECHANICAL_DESIGN_GEOMETRIC_PRESENTATION_REPRESENTATION (  '', ( #193 ), #177 ) ;
#161 = FILL_AREA_STYLE ('',( #60 ) ) ;
#162 = SURFACE_SIDE_STYLE ('',( #52 ) ) ;
#163 = AXIS2_PLACEMENT_3D ( 'NONE', #41, #154, #1 ) ;
#164 = ORIENTED_EDGE ( 'NONE', *, *, #208, .F. ) ;
#165 = ADVANCED_FACE ( 'NONE', ( #202 ), #3, .F. ) ;
#166 =( NAMED_UNIT ( * ) SI_UNIT ( $, .STERADIAN. ) SOLID_ANGLE_UNIT ( ) );
#167 = DIRECTION ( 'NONE',  ( 1.000000000000000000, -0.0000000000000000000, -0.0000000000000000000 ) ) ;
#168 = AXIS2_PLACEMENT_3D ( 'NONE', #54, #84, #195 ) ;
#169 = PRESENTATION_STYLE_ASSIGNMENT (( #19 ) ) ;
#170 = ORIENTED_EDGE ( 'NONE', *, *, #105, .T. ) ;
#171 =( LENGTH_UNIT ( ) NAMED_UNIT ( * ) SI_UNIT ( .MILLI., .METRE. ) );
#172 = AXIS2_PLACEMENT_3D ( 'NONE', #18, #145, #64 ) ;
#173 = ORIENTED_EDGE ( 'NONE', *, *, #111, .T. ) ;
#174 = DIRECTION ( 'NONE',  ( 1.000000000000000000, -0.0000000000000000000, -0.0000000000000000000 ) ) ;
#175 = DIRECTION ( 'NONE',  ( 0.0000000000000000000, 0.0000000000000000000, -1.000000000000000000 ) ) ;
#176 = ADVANCED_BREP_SHAPE_REPRESENTATION ( 'Z94.ER1.003.035', ( #153, #49 ), #149 ) ;
#177 =( GEOMETRIC_REPRESENTATION_CONTEXT ( 3 ) GLOBAL_UNCERTAINTY_ASSIGNED_CONTEXT ( ( #213 ) ) GLOBAL_UNIT_ASSIGNED_CONTEXT ( ( #144, #32, #92 ) ) REPRESENTATION_CONTEXT ( 'NONE', 'WORKASPACE' ) );
#178 = VECTOR ( 'NONE', #100, 1000.000000000000000 ) ;
#179 = PRODUCT_DEFINITION_CONTEXT ( 'detailed design', #67, 'design' ) ;
#180 = ORIENTED_EDGE ( 'NONE', *, *, #36, .T. ) ;
#181 = AXIS2_PLACEMENT_3D ( 'NONE', #196, #198, #135 ) ;
#182 = CARTESIAN_POINT ( 'NONE',  ( 0.0000000000000000000, 0.0000000000000000000, -8.500000000000000000 ) ) ;
#183 = CIRCLE ( 'NONE', #5, 8.500000000000000000 ) ;
#184 = CARTESIAN_POINT ( 'NONE',  ( -2.602085213965210600E-015, 2.081899558550500300E-015, 17.00000000000000000 ) ) ;
#185 = ORIENTED_EDGE ( 'NONE', *, *, #105, .F. ) ;
#186 = CARTESIAN_POINT ( 'NONE',  ( 7.206746031746035900, 0.0000000000000000000, 0.0000000000000000000 ) ) ;
#187 = CYLINDRICAL_SURFACE ( 'NONE', #168, 17.00000000000000000 ) ;
#188 = EDGE_LOOP ( 'NONE', ( #164, #95, #170, #78 ) ) ;
#189 = DIRECTION ( 'NONE',  ( 0.0000000000000000000, 0.0000000000000000000, 1.000000000000000000 ) ) ;
#190 = PRODUCT_DEFINITION ( 'UNKNOWN', '', #200, #179 ) ;
#191 = ORIENTED_EDGE ( 'NONE', *, *, #33, .F. ) ;
#192 = DIRECTION ( 'NONE',  ( 1.000000000000000000, -0.0000000000000000000, -0.0000000000000000000 ) ) ;
#193 = STYLED_ITEM ( 'NONE', ( #169 ), #153 ) ;
#194 = CIRCLE ( 'NONE', #85, 8.500000000000000000 ) ;
#195 = DIRECTION ( 'NONE',  ( 0.0000000000000000000, 0.0000000000000000000, -1.000000000000000000 ) ) ;
#196 = CARTESIAN_POINT ( 'NONE',  ( -1.192622389734054900E-015, 8.500000000000000000, 0.0000000000000000000 ) ) ;
#197 = PRESENTATION_LAYER_ASSIGNMENT (  '', '', ( #20 ) ) ;
#198 = DIRECTION ( 'NONE',  ( 1.000000000000000000, 0.0000000000000000000, -0.0000000000000000000 ) ) ;
#199 = CIRCLE ( 'NONE', #155, 8.499999999999998200 ) ;
#200 = PRODUCT_DEFINITION_FORMATION_WITH_SPECIFIED_SOURCE ( 'ANY', '', #76, .NOT_KNOWN. ) ;
#201 = CARTESIAN_POINT ( 'NONE',  ( -2.602085213965210600E-015, 0.0000000000000000000, -17.00000000000000000 ) ) ;
#202 = FACE_OUTER_BOUND ( 'NONE', #141, .T. ) ;
#203 = DIRECTION ( 'NONE',  ( 0.0000000000000000000, 0.0000000000000000000, -1.000000000000000000 ) ) ;
#204 = MECHANICAL_DESIGN_GEOMETRIC_PRESENTATION_REPRESENTATION (  '', ( #20 ), #16 ) ;
#205 = ORIENTED_EDGE ( 'NONE', *, *, #33, .T. ) ;
#206 = ADVANCED_FACE ( 'NONE', ( #130, #10 ), #94, .T. ) ;
#207 = FILL_AREA_STYLE_COLOUR ( '', #134 ) ;
#208 = EDGE_CURVE ( 'NONE', #131, #13, #209, .T. ) ;
#209 = LINE ( 'NONE', #109, #46 ) ;
#210 = ORIENTED_EDGE ( 'NONE', *, *, #63, .F. ) ;
#211 = CARTESIAN_POINT ( 'NONE',  ( -1.800000000000001200, 0.0000000000000000000, -17.00000000000000000 ) ) ;
#212 = CARTESIAN_POINT ( 'NONE',  ( 7.206746031746035900, 0.0000000000000000000, -17.00000000000000000 ) ) ;
#213 = UNCERTAINTY_MEASURE_WITH_UNIT (LENGTH_MEASURE( 1.000000000000000100E-005 ), #144, 'distance_accuracy_value', 'NONE');
#214 = DIRECTION ( 'NONE',  ( 0.0000000000000000000, 0.0000000000000000000, -1.000000000000000000 ) ) ;
ENDSEC;
END-ISO-10303-21;
