ISO-10303-21;
HEADER;
FILE_DESCRIPTION (( 'STEP AP214' ),
    '1' );
FILE_NAME ('Z72.ER1.003.025.STEP',
    '2021-03-31T07:42:29',
    ( '' ),
    ( '' ),
    'SwSTEP 2.0',
    'SolidWorks 2017',
    '' );
FILE_SCHEMA (( 'AUTOMOTIVE_DESIGN' ));
ENDSEC;

DATA;
#1 = FACE_BOUND ( 'NONE', #153, .T. ) ;
#2 = CARTESIAN_POINT ( 'NONE',  ( 0.0000000000000000000, 0.0000000000000000000, 0.0000000000000000000 ) ) ;
#3 = PRODUCT_DEFINITION_SHAPE ( 'NONE', 'NONE',  #17 ) ;
#4 = DIRECTION ( 'NONE',  ( 0.0000000000000000000, 0.0000000000000000000, -1.000000000000000000 ) ) ;
#5 = SURFACE_STYLE_USAGE ( .BOTH. , #204 ) ;
#6 = LINE ( 'NONE', #156, #52 ) ;
#7 = ORIENTED_EDGE ( 'NONE', *, *, #98, .F. ) ;
#8 = DIRECTION ( 'NONE',  ( 1.000000000000000000, -0.0000000000000000000, -0.0000000000000000000 ) ) ;
#9 = DIRECTION ( 'NONE',  ( 0.0000000000000000000, 0.0000000000000000000, 1.000000000000000000 ) ) ;
#10 = ORIENTED_EDGE ( 'NONE', *, *, #38, .T. ) ;
#11 = ORIENTED_EDGE ( 'NONE', *, *, #187, .T. ) ;
#12 = ORIENTED_EDGE ( 'NONE', *, *, #166, .T. ) ;
#13 = ORIENTED_EDGE ( 'NONE', *, *, #165, .T. ) ;
#14 = AXIS2_PLACEMENT_3D ( 'NONE', #56, #129, #95 ) ;
#15 = ORIENTED_EDGE ( 'NONE', *, *, #166, .F. ) ;
#16 = DIRECTION ( 'NONE',  ( 1.000000000000000000, -0.0000000000000000000, -0.0000000000000000000 ) ) ;
#17 = PRODUCT_DEFINITION ( 'UNKNOWN', '', #120, #48 ) ;
#18 = DIRECTION ( 'NONE',  ( 1.000000000000000000, 0.0000000000000000000, -0.0000000000000000000 ) ) ;
#19 = COLOUR_RGB ( '',0.6470588235294118000, 0.6196078431372549200, 0.5882352941176470800 ) ;
#20 = CARTESIAN_POINT ( 'NONE',  ( -0.8999999999999998000, 0.0000000000000000000, 0.0000000000000000000 ) ) ;
#21 = DIRECTION ( 'NONE',  ( 1.000000000000000000, -0.0000000000000000000, -0.0000000000000000000 ) ) ;
#22 = DIRECTION ( 'NONE',  ( -0.0000000000000000000, 0.0000000000000000000, -1.000000000000000000 ) ) ;
#23 = ADVANCED_FACE ( 'NONE', ( #1, #58 ), #136, .T. ) ;
#24 = CIRCLE ( 'NONE', #43, 6.499999999999999100 ) ;
#25 = EDGE_LOOP ( 'NONE', ( #135, #13, #11, #15 ) ) ;
#26 = DIRECTION ( 'NONE',  ( 1.000000000000000000, 0.0000000000000000000, 0.0000000000000000000 ) ) ;
#27 = CYLINDRICAL_SURFACE ( 'NONE', #57, 10.49999999999999800 ) ;
#28 = STYLED_ITEM ( 'NONE', ( #93 ), #119 ) ;
#29 = CYLINDRICAL_SURFACE ( 'NONE', #198, 10.49999999999999800 ) ;
#30 = ORIENTED_EDGE ( 'NONE', *, *, #80, .T. ) ;
#31 = FACE_OUTER_BOUND ( 'NONE', #25, .T. ) ;
#32 = EDGE_CURVE ( 'NONE', #44, #97, #152, .T. ) ;
#33 = VERTEX_POINT ( 'NONE', #183 ) ;
#34 = UNCERTAINTY_MEASURE_WITH_UNIT (LENGTH_MEASURE( 1.000000000000000100E-005 ), #191, 'distance_accuracy_value', 'NONE');
#35 = COLOUR_RGB ( '',0.6470588235294118000, 0.6196078431372549200, 0.5882352941176470800 ) ;
#36 =( LENGTH_UNIT ( ) NAMED_UNIT ( * ) SI_UNIT ( .MILLI., .METRE. ) );
#37 = CARTESIAN_POINT ( 'NONE',  ( 7.206746031746035900, 0.0000000000000000000, 0.0000000000000000000 ) ) ;
#38 = EDGE_CURVE ( 'NONE', #164, #173, #24, .T. ) ;
#39 = PRODUCT_CONTEXT ( 'NONE', #177, 'mechanical' ) ;
#40 =( LENGTH_UNIT ( ) NAMED_UNIT ( * ) SI_UNIT ( .MILLI., .METRE. ) );
#41 = CARTESIAN_POINT ( 'NONE',  ( 0.0000000000000000000, 0.0000000000000000000, 0.0000000000000000000 ) ) ;
#42 = CIRCLE ( 'NONE', #148, 10.49999999999999800 ) ;
#43 = AXIS2_PLACEMENT_3D ( 'NONE', #2, #16, #170 ) ;
#44 = VERTEX_POINT ( 'NONE', #169 ) ;
#45 = CYLINDRICAL_SURFACE ( 'NONE', #81, 6.499999999999999100 ) ;
#46 = ORIENTED_EDGE ( 'NONE', *, *, #87, .F. ) ;
#47 = DIRECTION ( 'NONE',  ( 1.000000000000000000, -0.0000000000000000000, -0.0000000000000000000 ) ) ;
#48 = PRODUCT_DEFINITION_CONTEXT ( 'detailed design', #128, 'design' ) ;
#49 = DIRECTION ( 'NONE',  ( 0.0000000000000000000, 0.0000000000000000000, 1.000000000000000000 ) ) ;
#50 = DIRECTION ( 'NONE',  ( 1.000000000000000000, -0.0000000000000000000, -0.0000000000000000000 ) ) ;
#51 = DIRECTION ( 'NONE',  ( 1.000000000000000000, -0.0000000000000000000, -0.0000000000000000000 ) ) ;
#52 = VECTOR ( 'NONE', #50, 1000.000000000000000 ) ;
#53 = CARTESIAN_POINT ( 'NONE',  ( -0.8999999999999998000, 0.0000000000000000000, -6.499999999999999100 ) ) ;
#54 = CARTESIAN_POINT ( 'NONE',  ( 7.206746031746035900, 0.0000000000000000000, 0.0000000000000000000 ) ) ;
#55 = AXIS2_PLACEMENT_3D ( 'NONE', #41, #9, #26 ) ;
#56 = CARTESIAN_POINT ( 'NONE',  ( -0.8999999999999998000, 0.0000000000000000000, 0.0000000000000000000 ) ) ;
#57 = AXIS2_PLACEMENT_3D ( 'NONE', #37, #121, #4 ) ;
#58 = FACE_OUTER_BOUND ( 'NONE', #188, .T. ) ;
#59 = EDGE_LOOP ( 'NONE', ( #115, #132 ) ) ;
#60 = PRESENTATION_LAYER_ASSIGNMENT (  '', '', ( #28 ) ) ;
#61 = AXIS2_PLACEMENT_3D ( 'NONE', #85, #84, #203 ) ;
#62 = ORIENTED_EDGE ( 'NONE', *, *, #116, .T. ) ;
#63 = EDGE_CURVE ( 'NONE', #197, #147, #182, .T. ) ;
#64 = FACE_OUTER_BOUND ( 'NONE', #142, .T. ) ;
#65 = UNCERTAINTY_MEASURE_WITH_UNIT (LENGTH_MEASURE( 1.000000000000000100E-005 ), #36, 'distance_accuracy_value', 'NONE');
#66 = VECTOR ( 'NONE', #21, 1000.000000000000000 ) ;
#67 =( GEOMETRIC_REPRESENTATION_CONTEXT ( 3 ) GLOBAL_UNCERTAINTY_ASSIGNED_CONTEXT ( ( #138 ) ) GLOBAL_UNIT_ASSIGNED_CONTEXT ( ( #40, #94, #77 ) ) REPRESENTATION_CONTEXT ( 'NONE', 'WORKASPACE' ) );
#68 = ADVANCED_FACE ( 'NONE', ( #186 ), #45, .F. ) ;
#69 = FILL_AREA_STYLE_COLOUR ( '', #19 ) ;
#70 = DIRECTION ( 'NONE',  ( 0.0000000000000000000, 0.0000000000000000000, -1.000000000000000000 ) ) ;
#71 = CARTESIAN_POINT ( 'NONE',  ( 7.206746031746035900, 1.285879139104720600E-015, 10.49999999999999800 ) ) ;
#72 = DIRECTION ( 'NONE',  ( 1.000000000000000000, -0.0000000000000000000, -0.0000000000000000000 ) ) ;
#73 = ORIENTED_EDGE ( 'NONE', *, *, #193, .F. ) ;
#74 = CARTESIAN_POINT ( 'NONE',  ( -0.8999999999999998000, 1.285879139104720600E-015, 10.49999999999999800 ) ) ;
#75 = AXIS2_PLACEMENT_3D ( 'NONE', #155, #140, #103 ) ;
#76 = FILL_AREA_STYLE ('',( #109 ) ) ;
#77 =( NAMED_UNIT ( * ) SI_UNIT ( $, .STERADIAN. ) SOLID_ANGLE_UNIT ( ) );
#78 = SURFACE_SIDE_STYLE ('',( #181 ) ) ;
#79 = VECTOR ( 'NONE', #107, 1000.000000000000000 ) ;
#80 = EDGE_CURVE ( 'NONE', #212, #33, #42, .T. ) ;
#81 = AXIS2_PLACEMENT_3D ( 'NONE', #151, #47, #139 ) ;
#82 = EDGE_CURVE ( 'NONE', #33, #97, #6, .T. ) ;
#83 = PRODUCT ( 'Z72.ER1.003.025', 'Z72.ER1.003.025', '', ( #39 ) ) ;
#84 = DIRECTION ( 'NONE',  ( 1.000000000000000000, -0.0000000000000000000, -0.0000000000000000000 ) ) ;
#85 = CARTESIAN_POINT ( 'NONE',  ( -8.673617379884035500E-016, 0.0000000000000000000, 0.0000000000000000000 ) ) ;
#86 = CARTESIAN_POINT ( 'NONE',  ( -0.8999999999999998000, 0.0000000000000000000, 0.0000000000000000000 ) ) ;
#87 = EDGE_CURVE ( 'NONE', #33, #212, #141, .T. ) ;
#88 = ADVANCED_FACE ( 'NONE', ( #64 ), #27, .T. ) ;
#89 = DIRECTION ( 'NONE',  ( 1.000000000000000000, -0.0000000000000000000, -0.0000000000000000000 ) ) ;
#90 = ORIENTED_EDGE ( 'NONE', *, *, #32, .F. ) ;
#91 = ORIENTED_EDGE ( 'NONE', *, *, #80, .F. ) ;
#92 = CARTESIAN_POINT ( 'NONE',  ( -0.8999999999999998000, 7.960204194457794500E-016, 6.499999999999999100 ) ) ;
#93 = PRESENTATION_STYLE_ASSIGNMENT (( #210 ) ) ;
#94 =( NAMED_UNIT ( * ) PLANE_ANGLE_UNIT ( ) SI_UNIT ( $, .RADIAN. ) );
#95 = DIRECTION ( 'NONE',  ( 0.0000000000000000000, 0.0000000000000000000, -1.000000000000000000 ) ) ;
#96 = ORIENTED_EDGE ( 'NONE', *, *, #82, .F. ) ;
#97 = VERTEX_POINT ( 'NONE', #137 ) ;
#98 = EDGE_CURVE ( 'NONE', #97, #44, #111, .T. ) ;
#99 = MANIFOLD_SOLID_BREP ( 'Rotation1', #208 ) ;
#100 = DIRECTION ( 'NONE',  ( -1.000000000000000000, 0.0000000000000000000, 0.0000000000000000000 ) ) ;
#101 = ORIENTED_EDGE ( 'NONE', *, *, #98, .T. ) ;
#102 = AXIS2_PLACEMENT_3D ( 'NONE', #125, #8, #144 ) ;
#103 = DIRECTION ( 'NONE',  ( 0.0000000000000000000, 0.0000000000000000000, -1.000000000000000000 ) ) ;
#104 = EDGE_LOOP ( 'NONE', ( #149, #73, #12, #10 ) ) ;
#105 = CARTESIAN_POINT ( 'NONE',  ( 0.0000000000000000000, 0.0000000000000000000, -6.499999999999999100 ) ) ;
#106 = DIRECTION ( 'NONE',  ( 1.000000000000000000, -0.0000000000000000000, -0.0000000000000000000 ) ) ;
#107 = DIRECTION ( 'NONE',  ( 1.000000000000000000, -0.0000000000000000000, -0.0000000000000000000 ) ) ;
#108 = CIRCLE ( 'NONE', #14, 6.499999999999999100 ) ;
#109 = FILL_AREA_STYLE_COLOUR ( '', #35 ) ;
#110 =( NAMED_UNIT ( * ) SI_UNIT ( $, .STERADIAN. ) SOLID_ANGLE_UNIT ( ) );
#111 = CIRCLE ( 'NONE', #161, 10.49999999999999800 ) ;
#112 = APPLICATION_PROTOCOL_DEFINITION ( 'draft international standard', 'automotive_design', 1998, #128 ) ;
#113 = AXIS2_PLACEMENT_3D ( 'NONE', #176, #18, #22 ) ;
#114 = VECTOR ( 'NONE', #72, 1000.000000000000000 ) ;
#115 = ORIENTED_EDGE ( 'NONE', *, *, #38, .F. ) ;
#116 = EDGE_CURVE ( 'NONE', #212, #44, #209, .T. ) ;
#117 = FACE_OUTER_BOUND ( 'NONE', #118, .T. ) ;
#118 = EDGE_LOOP ( 'NONE', ( #101, #195 ) ) ;
#119 = ADVANCED_BREP_SHAPE_REPRESENTATION ( 'Z72.ER1.003.025', ( #99, #55 ), #67 ) ;
#120 = PRODUCT_DEFINITION_FORMATION_WITH_SPECIFIED_SOURCE ( 'ANY', '', #83, .NOT_KNOWN. ) ;
#121 = DIRECTION ( 'NONE',  ( 1.000000000000000000, -0.0000000000000000000, -0.0000000000000000000 ) ) ;
#122 = ADVANCED_FACE ( 'NONE', ( #207 ), #29, .T. ) ;
#123 = PLANE ( 'NONE',  #113 ) ;
#124 = AXIS2_PLACEMENT_3D ( 'NONE', #190, #192, #179 ) ;
#125 = CARTESIAN_POINT ( 'NONE',  ( 7.206746031746035900, 0.0000000000000000000, 0.0000000000000000000 ) ) ;
#126 = ORIENTED_EDGE ( 'NONE', *, *, #193, .T. ) ;
#127 = CARTESIAN_POINT ( 'NONE',  ( 0.0000000000000000000, 7.960204194457794500E-016, 6.499999999999999100 ) ) ;
#128 = APPLICATION_CONTEXT ( 'automotive_design' ) ;
#129 = DIRECTION ( 'NONE',  ( 1.000000000000000000, -0.0000000000000000000, -0.0000000000000000000 ) ) ;
#130 = FACE_BOUND ( 'NONE', #59, .T. ) ;
#131 =( NAMED_UNIT ( * ) PLANE_ANGLE_UNIT ( ) SI_UNIT ( $, .RADIAN. ) );
#132 = ORIENTED_EDGE ( 'NONE', *, *, #187, .F. ) ;
#133 = PRESENTATION_LAYER_ASSIGNMENT (  '', '', ( #134 ) ) ;
#134 = STYLED_ITEM ( 'NONE', ( #201 ), #99 ) ;
#135 = ORIENTED_EDGE ( 'NONE', *, *, #63, .F. ) ;
#136 = PLANE ( 'NONE',  #200 ) ;
#137 = CARTESIAN_POINT ( 'NONE',  ( -8.673617379884035500E-016, 0.0000000000000000000, -10.49999999999999800 ) ) ;
#138 = UNCERTAINTY_MEASURE_WITH_UNIT (LENGTH_MEASURE( 1.000000000000000100E-005 ), #40, 'distance_accuracy_value', 'NONE');
#139 = DIRECTION ( 'NONE',  ( 0.0000000000000000000, 0.0000000000000000000, -1.000000000000000000 ) ) ;
#140 = DIRECTION ( 'NONE',  ( 1.000000000000000000, -0.0000000000000000000, -0.0000000000000000000 ) ) ;
#141 = CIRCLE ( 'NONE', #154, 10.49999999999999800 ) ;
#142 = EDGE_LOOP ( 'NONE', ( #202, #30, #145, #90 ) ) ;
#143 = MECHANICAL_DESIGN_GEOMETRIC_PRESENTATION_REPRESENTATION (  '', ( #28 ), #213 ) ;
#144 = DIRECTION ( 'NONE',  ( 0.0000000000000000000, 0.0000000000000000000, -1.000000000000000000 ) ) ;
#145 = ORIENTED_EDGE ( 'NONE', *, *, #82, .T. ) ;
#146 = ORIENTED_EDGE ( 'NONE', *, *, #63, .T. ) ;
#147 = VERTEX_POINT ( 'NONE', #53 ) ;
#148 = AXIS2_PLACEMENT_3D ( 'NONE', #86, #89, #70 ) ;
#149 = ORIENTED_EDGE ( 'NONE', *, *, #165, .F. ) ;
#150 = PRODUCT_RELATED_PRODUCT_CATEGORY ( 'part', '', ( #83 ) ) ;
#151 = CARTESIAN_POINT ( 'NONE',  ( 7.206746031746035900, 0.0000000000000000000, 0.0000000000000000000 ) ) ;
#152 = CIRCLE ( 'NONE', #61, 10.49999999999999800 ) ;
#153 = EDGE_LOOP ( 'NONE', ( #126, #146 ) ) ;
#154 = AXIS2_PLACEMENT_3D ( 'NONE', #20, #206, #205 ) ;
#155 = CARTESIAN_POINT ( 'NONE',  ( -0.8999999999999998000, 0.0000000000000000000, 0.0000000000000000000 ) ) ;
#156 = CARTESIAN_POINT ( 'NONE',  ( 7.206746031746035900, 0.0000000000000000000, -10.49999999999999800 ) ) ;
#157 = CARTESIAN_POINT ( 'NONE',  ( -8.673617379884035500E-016, 0.0000000000000000000, 0.0000000000000000000 ) ) ;
#158 =( NAMED_UNIT ( * ) SI_UNIT ( $, .STERADIAN. ) SOLID_ANGLE_UNIT ( ) );
#159 = EDGE_LOOP ( 'NONE', ( #180, #62, #7, #96 ) ) ;
#160 = ADVANCED_FACE ( 'NONE', ( #117, #130 ), #123, .T. ) ;
#161 = AXIS2_PLACEMENT_3D ( 'NONE', #157, #106, #171 ) ;
#162 = APPLICATION_PROTOCOL_DEFINITION ( 'draft international standard', 'automotive_design', 1998, #177 ) ;
#163 = LINE ( 'NONE', #185, #66 ) ;
#164 = VERTEX_POINT ( 'NONE', #105 ) ;
#165 = EDGE_CURVE ( 'NONE', #197, #173, #163, .T. ) ;
#166 = EDGE_CURVE ( 'NONE', #147, #164, #168, .T. ) ;
#167 = CARTESIAN_POINT ( 'NONE',  ( -0.9000000000000002400, 10.49999999999999800, 0.0000000000000000000 ) ) ;
#168 = LINE ( 'NONE', #174, #114 ) ;
#169 = CARTESIAN_POINT ( 'NONE',  ( -8.673617379884035500E-016, 1.285879139104720600E-015, 10.49999999999999800 ) ) ;
#170 = DIRECTION ( 'NONE',  ( 0.0000000000000000000, 0.0000000000000000000, -1.000000000000000000 ) ) ;
#171 = DIRECTION ( 'NONE',  ( 0.0000000000000000000, 0.0000000000000000000, -1.000000000000000000 ) ) ;
#172 = FILL_AREA_STYLE ('',( #69 ) ) ;
#173 = VERTEX_POINT ( 'NONE', #127 ) ;
#174 = CARTESIAN_POINT ( 'NONE',  ( 7.206746031746035900, 0.0000000000000000000, -6.499999999999999100 ) ) ;
#175 = ADVANCED_FACE ( 'NONE', ( #31 ), #214, .F. ) ;
#176 = CARTESIAN_POINT ( 'NONE',  ( -4.336808689942017700E-016, 6.499999999999999100, 0.0000000000000000000 ) ) ;
#177 = APPLICATION_CONTEXT ( 'automotive_design' ) ;
#178 =( GEOMETRIC_REPRESENTATION_CONTEXT ( 3 ) GLOBAL_UNCERTAINTY_ASSIGNED_CONTEXT ( ( #65 ) ) GLOBAL_UNIT_ASSIGNED_CONTEXT ( ( #36, #184, #158 ) ) REPRESENTATION_CONTEXT ( 'NONE', 'WORKASPACE' ) );
#179 = DIRECTION ( 'NONE',  ( 0.0000000000000000000, 0.0000000000000000000, -1.000000000000000000 ) ) ;
#180 = ORIENTED_EDGE ( 'NONE', *, *, #87, .T. ) ;
#181 = SURFACE_STYLE_FILL_AREA ( #76 ) ;
#182 = CIRCLE ( 'NONE', #75, 6.499999999999999100 ) ;
#183 = CARTESIAN_POINT ( 'NONE',  ( -0.8999999999999998000, 0.0000000000000000000, -10.49999999999999800 ) ) ;
#184 =( NAMED_UNIT ( * ) PLANE_ANGLE_UNIT ( ) SI_UNIT ( $, .RADIAN. ) );
#185 = CARTESIAN_POINT ( 'NONE',  ( 7.206746031746035900, 7.960204194457794500E-016, 6.499999999999999100 ) ) ;
#186 = FACE_OUTER_BOUND ( 'NONE', #104, .T. ) ;
#187 = EDGE_CURVE ( 'NONE', #173, #164, #196, .T. ) ;
#188 = EDGE_LOOP ( 'NONE', ( #46, #91 ) ) ;
#189 = DIRECTION ( 'NONE',  ( 0.0000000000000000000, 0.0000000000000000000, -1.000000000000000000 ) ) ;
#190 = CARTESIAN_POINT ( 'NONE',  ( 0.0000000000000000000, 0.0000000000000000000, 0.0000000000000000000 ) ) ;
#191 =( LENGTH_UNIT ( ) NAMED_UNIT ( * ) SI_UNIT ( .MILLI., .METRE. ) );
#192 = DIRECTION ( 'NONE',  ( 1.000000000000000000, -0.0000000000000000000, -0.0000000000000000000 ) ) ;
#193 = EDGE_CURVE ( 'NONE', #147, #197, #108, .T. ) ;
#194 = SURFACE_STYLE_FILL_AREA ( #172 ) ;
#195 = ORIENTED_EDGE ( 'NONE', *, *, #32, .T. ) ;
#196 = CIRCLE ( 'NONE', #124, 6.499999999999999100 ) ;
#197 = VERTEX_POINT ( 'NONE', #92 ) ;
#198 = AXIS2_PLACEMENT_3D ( 'NONE', #54, #51, #189 ) ;
#199 = SHAPE_DEFINITION_REPRESENTATION ( #3, #119 ) ;
#200 = AXIS2_PLACEMENT_3D ( 'NONE', #167, #100, #49 ) ;
#201 = PRESENTATION_STYLE_ASSIGNMENT (( #5 ) ) ;
#202 = ORIENTED_EDGE ( 'NONE', *, *, #116, .F. ) ;
#203 = DIRECTION ( 'NONE',  ( 0.0000000000000000000, 0.0000000000000000000, -1.000000000000000000 ) ) ;
#204 = SURFACE_SIDE_STYLE ('',( #194 ) ) ;
#205 = DIRECTION ( 'NONE',  ( 0.0000000000000000000, 0.0000000000000000000, -1.000000000000000000 ) ) ;
#206 = DIRECTION ( 'NONE',  ( 1.000000000000000000, -0.0000000000000000000, -0.0000000000000000000 ) ) ;
#207 = FACE_OUTER_BOUND ( 'NONE', #159, .T. ) ;
#208 = CLOSED_SHELL ( 'NONE', ( #122, #175, #68, #23, #88, #160 ) ) ;
#209 = LINE ( 'NONE', #71, #79 ) ;
#210 = SURFACE_STYLE_USAGE ( .BOTH. , #78 ) ;
#211 = MECHANICAL_DESIGN_GEOMETRIC_PRESENTATION_REPRESENTATION (  '', ( #134 ), #178 ) ;
#212 = VERTEX_POINT ( 'NONE', #74 ) ;
#213 =( GEOMETRIC_REPRESENTATION_CONTEXT ( 3 ) GLOBAL_UNCERTAINTY_ASSIGNED_CONTEXT ( ( #34 ) ) GLOBAL_UNIT_ASSIGNED_CONTEXT ( ( #191, #131, #110 ) ) REPRESENTATION_CONTEXT ( 'NONE', 'WORKASPACE' ) );
#214 = CYLINDRICAL_SURFACE ( 'NONE', #102, 6.499999999999999100 ) ;
ENDSEC;
END-ISO-10303-21;
