ISO-10303-21;
HEADER;
FILE_DESCRIPTION (( 'STEP AP214' ),
    '1' );
FILE_NAME ('Z55.ER1.003.025.STEP',
    '2021-03-31T07:36:25',
    ( '' ),
    ( '' ),
    'SwSTEP 2.0',
    'SolidWorks 2017',
    '' );
FILE_SCHEMA (( 'AUTOMOTIVE_DESIGN' ));
ENDSEC;

DATA;
#1 = FILL_AREA_STYLE ('',( #134 ) ) ;
#2 = DIRECTION ( 'NONE',  ( 1.000000000000000000, -0.0000000000000000000, -0.0000000000000000000 ) ) ;
#3 = SURFACE_SIDE_STYLE ('',( #26 ) ) ;
#4 = ORIENTED_EDGE ( 'NONE', *, *, #58, .F. ) ;
#5 = DIRECTION ( 'NONE',  ( 1.000000000000000000, -0.0000000000000000000, -0.0000000000000000000 ) ) ;
#6 =( GEOMETRIC_REPRESENTATION_CONTEXT ( 3 ) GLOBAL_UNCERTAINTY_ASSIGNED_CONTEXT ( ( #74 ) ) GLOBAL_UNIT_ASSIGNED_CONTEXT ( ( #116, #17, #202 ) ) REPRESENTATION_CONTEXT ( 'NONE', 'WORKASPACE' ) );
#7 = CARTESIAN_POINT ( 'NONE',  ( 0.0000000000000000000, 0.0000000000000000000, -5.249999999999999100 ) ) ;
#8 = PRESENTATION_LAYER_ASSIGNMENT (  '', '', ( #211 ) ) ;
#9 =( GEOMETRIC_REPRESENTATION_CONTEXT ( 3 ) GLOBAL_UNCERTAINTY_ASSIGNED_CONTEXT ( ( #69 ) ) GLOBAL_UNIT_ASSIGNED_CONTEXT ( ( #133, #36, #149 ) ) REPRESENTATION_CONTEXT ( 'NONE', 'WORKASPACE' ) );
#10 = VECTOR ( 'NONE', #129, 1000.000000000000000 ) ;
#11 = ORIENTED_EDGE ( 'NONE', *, *, #65, .F. ) ;
#12 = EDGE_LOOP ( 'NONE', ( #120, #4 ) ) ;
#13 = CARTESIAN_POINT ( 'NONE',  ( 7.206746031746035900, 1.040949779275249900E-015, 8.499999999999998200 ) ) ;
#14 = CYLINDRICAL_SURFACE ( 'NONE', #203, 8.499999999999998200 ) ;
#15 = EDGE_LOOP ( 'NONE', ( #141, #48 ) ) ;
#16 = DIRECTION ( 'NONE',  ( 1.000000000000000000, 0.0000000000000000000, 0.0000000000000000000 ) ) ;
#17 =( NAMED_UNIT ( * ) PLANE_ANGLE_UNIT ( ) SI_UNIT ( $, .RADIAN. ) );
#18 = MECHANICAL_DESIGN_GEOMETRIC_PRESENTATION_REPRESENTATION (  '', ( #211 ), #9 ) ;
#19 = DIRECTION ( 'NONE',  ( 0.0000000000000000000, 0.0000000000000000000, -1.000000000000000000 ) ) ;
#20 = DIRECTION ( 'NONE',  ( 1.000000000000000000, -0.0000000000000000000, -0.0000000000000000000 ) ) ;
#21 = EDGE_CURVE ( 'NONE', #176, #119, #197, .T. ) ;
#22 = DIRECTION ( 'NONE',  ( 0.0000000000000000000, 0.0000000000000000000, -1.000000000000000000 ) ) ;
#23 = CYLINDRICAL_SURFACE ( 'NONE', #106, 5.249999999999999100 ) ;
#24 = EDGE_LOOP ( 'NONE', ( #177, #131, #188, #137 ) ) ;
#25 = EDGE_CURVE ( 'NONE', #140, #179, #199, .T. ) ;
#26 = SURFACE_STYLE_FILL_AREA ( #1 ) ;
#27 = LINE ( 'NONE', #182, #10 ) ;
#28 = VERTEX_POINT ( 'NONE', #171 ) ;
#29 = PLANE ( 'NONE',  #180 ) ;
#30 = AXIS2_PLACEMENT_3D ( 'NONE', #77, #61, #47 ) ;
#31 = ADVANCED_FACE ( 'NONE', ( #81 ), #23, .F. ) ;
#32 = DIRECTION ( 'NONE',  ( 0.0000000000000000000, 0.0000000000000000000, -1.000000000000000000 ) ) ;
#33 = CIRCLE ( 'NONE', #71, 5.249999999999999100 ) ;
#34 = CARTESIAN_POINT ( 'NONE',  ( -0.7000000000000001800, 8.499999999999998200, 0.0000000000000000000 ) ) ;
#35 = ORIENTED_EDGE ( 'NONE', *, *, #58, .T. ) ;
#36 =( NAMED_UNIT ( * ) PLANE_ANGLE_UNIT ( ) SI_UNIT ( $, .RADIAN. ) );
#37 = APPLICATION_CONTEXT ( 'automotive_design' ) ;
#38 = COLOUR_RGB ( '',0.6862745098039215700, 0.6078431372549019100, 0.5294117647058823600 ) ;
#39 = DIRECTION ( 'NONE',  ( 1.000000000000000000, -0.0000000000000000000, -0.0000000000000000000 ) ) ;
#40 = CARTESIAN_POINT ( 'NONE',  ( 7.206746031746035900, 0.0000000000000000000, -8.499999999999998200 ) ) ;
#41 = LINE ( 'NONE', #13, #206 ) ;
#42 = ORIENTED_EDGE ( 'NONE', *, *, #84, .T. ) ;
#43 = ADVANCED_BREP_SHAPE_REPRESENTATION ( 'Z55.ER1.003.025', ( #163, #162 ), #150 ) ;
#44 = PRODUCT ( 'Z55.ER1.003.025', 'Z55.ER1.003.025', '', ( #83 ) ) ;
#45 = CIRCLE ( 'NONE', #103, 8.499999999999998200 ) ;
#46 = VERTEX_POINT ( 'NONE', #7 ) ;
#47 = DIRECTION ( 'NONE',  ( 0.0000000000000000000, 0.0000000000000000000, -1.000000000000000000 ) ) ;
#48 = ORIENTED_EDGE ( 'NONE', *, *, #96, .T. ) ;
#49 = PLANE ( 'NONE',  #157 ) ;
#50 = CARTESIAN_POINT ( 'NONE',  ( -8.673617379884035500E-016, 1.040949779275249900E-015, 8.499999999999998200 ) ) ;
#51 = DIRECTION ( 'NONE',  ( 0.0000000000000000000, 0.0000000000000000000, -1.000000000000000000 ) ) ;
#52 = CARTESIAN_POINT ( 'NONE',  ( -8.673617379884035500E-016, 0.0000000000000000000, 0.0000000000000000000 ) ) ;
#53 = CARTESIAN_POINT ( 'NONE',  ( -0.7000000000000009500, 0.0000000000000000000, -8.499999999999998200 ) ) ;
#54 = DIRECTION ( 'NONE',  ( 0.0000000000000000000, 0.0000000000000000000, 1.000000000000000000 ) ) ;
#55 = FACE_OUTER_BOUND ( 'NONE', #24, .T. ) ;
#56 = DIRECTION ( 'NONE',  ( 1.000000000000000000, -0.0000000000000000000, -0.0000000000000000000 ) ) ;
#57 = ORIENTED_EDGE ( 'NONE', *, *, #21, .F. ) ;
#58 = EDGE_CURVE ( 'NONE', #179, #46, #105, .T. ) ;
#59 = DIRECTION ( 'NONE',  ( 1.000000000000000000, 0.0000000000000000000, -0.0000000000000000000 ) ) ;
#60 = ADVANCED_FACE ( 'NONE', ( #55 ), #186, .T. ) ;
#61 = DIRECTION ( 'NONE',  ( 1.000000000000000000, -0.0000000000000000000, -0.0000000000000000000 ) ) ;
#62 = ORIENTED_EDGE ( 'NONE', *, *, #76, .T. ) ;
#63 = CARTESIAN_POINT ( 'NONE',  ( 0.0000000000000000000, 0.0000000000000000000, 0.0000000000000000000 ) ) ;
#64 =( NAMED_UNIT ( * ) PLANE_ANGLE_UNIT ( ) SI_UNIT ( $, .RADIAN. ) );
#65 = EDGE_CURVE ( 'NONE', #140, #124, #108, .T. ) ;
#66 = SURFACE_STYLE_USAGE ( .BOTH. , #3 ) ;
#67 = SURFACE_STYLE_USAGE ( .BOTH. , #173 ) ;
#68 = EDGE_CURVE ( 'NONE', #124, #140, #33, .T. ) ;
#69 = UNCERTAINTY_MEASURE_WITH_UNIT (LENGTH_MEASURE( 1.000000000000000100E-005 ), #133, 'distance_accuracy_value', 'NONE');
#70 = FACE_BOUND ( 'NONE', #148, .T. ) ;
#71 = AXIS2_PLACEMENT_3D ( 'NONE', #213, #143, #113 ) ;
#72 = CARTESIAN_POINT ( 'NONE',  ( 0.0000000000000000000, 0.0000000000000000000, 0.0000000000000000000 ) ) ;
#73 = VECTOR ( 'NONE', #5, 1000.000000000000000 ) ;
#74 = UNCERTAINTY_MEASURE_WITH_UNIT (LENGTH_MEASURE( 1.000000000000000100E-005 ), #116, 'distance_accuracy_value', 'NONE');
#75 = ORIENTED_EDGE ( 'NONE', *, *, #65, .T. ) ;
#76 = EDGE_CURVE ( 'NONE', #124, #46, #27, .T. ) ;
#77 = CARTESIAN_POINT ( 'NONE',  ( -8.673617379884035500E-016, 0.0000000000000000000, 0.0000000000000000000 ) ) ;
#78 = ADVANCED_FACE ( 'NONE', ( #89 ), #118, .F. ) ;
#79 = CARTESIAN_POINT ( 'NONE',  ( 0.0000000000000000000, 6.429395695523603200E-016, 5.249999999999999100 ) ) ;
#80 = DIRECTION ( 'NONE',  ( 0.0000000000000000000, 0.0000000000000000000, -1.000000000000000000 ) ) ;
#81 = FACE_OUTER_BOUND ( 'NONE', #91, .T. ) ;
#82 = VERTEX_POINT ( 'NONE', #50 ) ;
#83 = PRODUCT_CONTEXT ( 'NONE', #37, 'mechanical' ) ;
#84 = EDGE_CURVE ( 'NONE', #28, #82, #41, .T. ) ;
#85 = CIRCLE ( 'NONE', #142, 5.249999999999999100 ) ;
#86 =( NAMED_UNIT ( * ) SI_UNIT ( $, .STERADIAN. ) SOLID_ANGLE_UNIT ( ) );
#87 = DIRECTION ( 'NONE',  ( 1.000000000000000000, -0.0000000000000000000, -0.0000000000000000000 ) ) ;
#88 = PRODUCT_DEFINITION ( 'UNKNOWN', '', #174, #189 ) ;
#89 = FACE_OUTER_BOUND ( 'NONE', #194, .T. ) ;
#90 = CARTESIAN_POINT ( 'NONE',  ( 7.206746031746035900, 0.0000000000000000000, 0.0000000000000000000 ) ) ;
#91 = EDGE_LOOP ( 'NONE', ( #109, #169, #62, #187 ) ) ;
#92 = CARTESIAN_POINT ( 'NONE',  ( 7.206746031746035900, 0.0000000000000000000, 0.0000000000000000000 ) ) ;
#93 = AXIS2_PLACEMENT_3D ( 'NONE', #102, #101, #136 ) ;
#94 = PRODUCT_DEFINITION_SHAPE ( 'NONE', 'NONE',  #88 ) ;
#95 = ORIENTED_EDGE ( 'NONE', *, *, #135, .F. ) ;
#96 = EDGE_CURVE ( 'NONE', #82, #119, #160, .T. ) ;
#97 = DIRECTION ( 'NONE',  ( 0.0000000000000000000, 0.0000000000000000000, 1.000000000000000000 ) ) ;
#98 = ADVANCED_FACE ( 'NONE', ( #122, #209 ), #29, .T. ) ;
#99 = ORIENTED_EDGE ( 'NONE', *, *, #158, .F. ) ;
#100 = DIRECTION ( 'NONE',  ( 0.0000000000000000000, 0.0000000000000000000, -1.000000000000000000 ) ) ;
#101 = DIRECTION ( 'NONE',  ( 1.000000000000000000, -0.0000000000000000000, -0.0000000000000000000 ) ) ;
#102 = CARTESIAN_POINT ( 'NONE',  ( -0.7000000000000009500, 0.0000000000000000000, 0.0000000000000000000 ) ) ;
#103 = AXIS2_PLACEMENT_3D ( 'NONE', #151, #2, #19 ) ;
#104 = FACE_OUTER_BOUND ( 'NONE', #175, .T. ) ;
#105 = CIRCLE ( 'NONE', #144, 5.249999999999999100 ) ;
#106 = AXIS2_PLACEMENT_3D ( 'NONE', #121, #39, #153 ) ;
#107 = ORIENTED_EDGE ( 'NONE', *, *, #25, .T. ) ;
#108 = CIRCLE ( 'NONE', #212, 5.249999999999999100 ) ;
#109 = ORIENTED_EDGE ( 'NONE', *, *, #25, .F. ) ;
#110 = STYLED_ITEM ( 'NONE', ( #152 ), #43 ) ;
#111 = CARTESIAN_POINT ( 'NONE',  ( -0.6999999999999992900, 0.0000000000000000000, -5.249999999999999100 ) ) ;
#112 = ADVANCED_FACE ( 'NONE', ( #70, #104 ), #49, .T. ) ;
#113 = DIRECTION ( 'NONE',  ( 0.0000000000000000000, 0.0000000000000000000, -1.000000000000000000 ) ) ;
#114 = CARTESIAN_POINT ( 'NONE',  ( -8.673617379884035500E-016, 0.0000000000000000000, -8.499999999999998200 ) ) ;
#115 = DIRECTION ( 'NONE',  ( 0.0000000000000000000, 0.0000000000000000000, -1.000000000000000000 ) ) ;
#116 =( LENGTH_UNIT ( ) NAMED_UNIT ( * ) SI_UNIT ( .MILLI., .METRE. ) );
#117 = APPLICATION_CONTEXT ( 'automotive_design' ) ;
#118 = CYLINDRICAL_SURFACE ( 'NONE', #126, 5.249999999999999100 ) ;
#119 = VERTEX_POINT ( 'NONE', #114 ) ;
#120 = ORIENTED_EDGE ( 'NONE', *, *, #123, .F. ) ;
#121 = CARTESIAN_POINT ( 'NONE',  ( 7.206746031746035900, 0.0000000000000000000, 0.0000000000000000000 ) ) ;
#122 = FACE_OUTER_BOUND ( 'NONE', #15, .T. ) ;
#123 = EDGE_CURVE ( 'NONE', #46, #179, #85, .T. ) ;
#124 = VERTEX_POINT ( 'NONE', #111 ) ;
#125 = DIRECTION ( 'NONE',  ( 1.000000000000000000, -0.0000000000000000000, -0.0000000000000000000 ) ) ;
#126 = AXIS2_PLACEMENT_3D ( 'NONE', #92, #130, #32 ) ;
#127 = CARTESIAN_POINT ( 'NONE',  ( 7.206746031746035900, 0.0000000000000000000, 0.0000000000000000000 ) ) ;
#128 = ADVANCED_FACE ( 'NONE', ( #147 ), #14, .T. ) ;
#129 = DIRECTION ( 'NONE',  ( 1.000000000000000000, -0.0000000000000000000, -0.0000000000000000000 ) ) ;
#130 = DIRECTION ( 'NONE',  ( 1.000000000000000000, -0.0000000000000000000, -0.0000000000000000000 ) ) ;
#131 = ORIENTED_EDGE ( 'NONE', *, *, #139, .T. ) ;
#132 = FILL_AREA_STYLE ('',( #183 ) ) ;
#133 =( LENGTH_UNIT ( ) NAMED_UNIT ( * ) SI_UNIT ( .MILLI., .METRE. ) );
#134 = FILL_AREA_STYLE_COLOUR ( '', #38 ) ;
#135 = EDGE_CURVE ( 'NONE', #119, #82, #166, .T. ) ;
#136 = DIRECTION ( 'NONE',  ( 0.0000000000000000000, 0.0000000000000000000, -1.000000000000000000 ) ) ;
#137 = ORIENTED_EDGE ( 'NONE', *, *, #96, .F. ) ;
#138 = EDGE_LOOP ( 'NONE', ( #191, #42, #95, #57 ) ) ;
#139 = EDGE_CURVE ( 'NONE', #28, #176, #208, .T. ) ;
#140 = VERTEX_POINT ( 'NONE', #145 ) ;
#141 = ORIENTED_EDGE ( 'NONE', *, *, #135, .T. ) ;
#142 = AXIS2_PLACEMENT_3D ( 'NONE', #214, #181, #51 ) ;
#143 = DIRECTION ( 'NONE',  ( 1.000000000000000000, -0.0000000000000000000, -0.0000000000000000000 ) ) ;
#144 = AXIS2_PLACEMENT_3D ( 'NONE', #72, #56, #207 ) ;
#145 = CARTESIAN_POINT ( 'NONE',  ( -0.6999999999999992900, 6.429395695523603200E-016, 5.249999999999999100 ) ) ;
#146 = CARTESIAN_POINT ( 'NONE',  ( -0.6999999999999992900, 0.0000000000000000000, 0.0000000000000000000 ) ) ;
#147 = FACE_OUTER_BOUND ( 'NONE', #138, .T. ) ;
#148 = EDGE_LOOP ( 'NONE', ( #161, #75 ) ) ;
#149 =( NAMED_UNIT ( * ) SI_UNIT ( $, .STERADIAN. ) SOLID_ANGLE_UNIT ( ) );
#150 =( GEOMETRIC_REPRESENTATION_CONTEXT ( 3 ) GLOBAL_UNCERTAINTY_ASSIGNED_CONTEXT ( ( #192 ) ) GLOBAL_UNIT_ASSIGNED_CONTEXT ( ( #185, #64, #86 ) ) REPRESENTATION_CONTEXT ( 'NONE', 'WORKASPACE' ) );
#151 = CARTESIAN_POINT ( 'NONE',  ( -0.7000000000000009500, 0.0000000000000000000, 0.0000000000000000000 ) ) ;
#152 = PRESENTATION_STYLE_ASSIGNMENT (( #66 ) ) ;
#153 = DIRECTION ( 'NONE',  ( 0.0000000000000000000, 0.0000000000000000000, -1.000000000000000000 ) ) ;
#154 = DIRECTION ( 'NONE',  ( 1.000000000000000000, -0.0000000000000000000, -0.0000000000000000000 ) ) ;
#155 = VECTOR ( 'NONE', #154, 1000.000000000000000 ) ;
#156 = CLOSED_SHELL ( 'NONE', ( #128, #78, #31, #112, #60, #98 ) ) ;
#157 = AXIS2_PLACEMENT_3D ( 'NONE', #34, #196, #97 ) ;
#158 = EDGE_CURVE ( 'NONE', #176, #28, #45, .T. ) ;
#159 = PRODUCT_RELATED_PRODUCT_CATEGORY ( 'part', '', ( #44 ) ) ;
#160 = CIRCLE ( 'NONE', #30, 8.499999999999998200 ) ;
#161 = ORIENTED_EDGE ( 'NONE', *, *, #68, .T. ) ;
#162 = AXIS2_PLACEMENT_3D ( 'NONE', #63, #54, #16 ) ;
#163 = MANIFOLD_SOLID_BREP ( 'Rotation1', #156 ) ;
#164 = PRESENTATION_LAYER_ASSIGNMENT (  '', '', ( #110 ) ) ;
#165 = CARTESIAN_POINT ( 'NONE',  ( -3.523657060577889400E-016, 5.249999999999999100, 0.0000000000000000000 ) ) ;
#166 = CIRCLE ( 'NONE', #178, 8.499999999999998200 ) ;
#167 = DIRECTION ( 'NONE',  ( 1.000000000000000000, -0.0000000000000000000, -0.0000000000000000000 ) ) ;
#168 = SURFACE_STYLE_FILL_AREA ( #132 ) ;
#169 = ORIENTED_EDGE ( 'NONE', *, *, #68, .F. ) ;
#170 = APPLICATION_PROTOCOL_DEFINITION ( 'draft international standard', 'automotive_design', 1998, #37 ) ;
#171 = CARTESIAN_POINT ( 'NONE',  ( -0.7000000000000009500, 1.040949779275249900E-015, 8.499999999999998200 ) ) ;
#172 = AXIS2_PLACEMENT_3D ( 'NONE', #90, #87, #22 ) ;
#173 = SURFACE_SIDE_STYLE ('',( #168 ) ) ;
#174 = PRODUCT_DEFINITION_FORMATION_WITH_SPECIFIED_SOURCE ( 'ANY', '', #44, .NOT_KNOWN. ) ;
#175 = EDGE_LOOP ( 'NONE', ( #99, #210 ) ) ;
#176 = VERTEX_POINT ( 'NONE', #53 ) ;
#177 = ORIENTED_EDGE ( 'NONE', *, *, #84, .F. ) ;
#178 = AXIS2_PLACEMENT_3D ( 'NONE', #52, #20, #100 ) ;
#179 = VERTEX_POINT ( 'NONE', #79 ) ;
#180 = AXIS2_PLACEMENT_3D ( 'NONE', #165, #59, #195 ) ;
#181 = DIRECTION ( 'NONE',  ( 1.000000000000000000, -0.0000000000000000000, -0.0000000000000000000 ) ) ;
#182 = CARTESIAN_POINT ( 'NONE',  ( 7.206746031746035900, 0.0000000000000000000, -5.249999999999999100 ) ) ;
#183 = FILL_AREA_STYLE_COLOUR ( '', #193 ) ;
#184 = MECHANICAL_DESIGN_GEOMETRIC_PRESENTATION_REPRESENTATION (  '', ( #110 ), #6 ) ;
#185 =( LENGTH_UNIT ( ) NAMED_UNIT ( * ) SI_UNIT ( .MILLI., .METRE. ) );
#186 = CYLINDRICAL_SURFACE ( 'NONE', #172, 8.499999999999998200 ) ;
#187 = ORIENTED_EDGE ( 'NONE', *, *, #123, .T. ) ;
#188 = ORIENTED_EDGE ( 'NONE', *, *, #21, .T. ) ;
#189 = PRODUCT_DEFINITION_CONTEXT ( 'detailed design', #117, 'design' ) ;
#190 = PRESENTATION_STYLE_ASSIGNMENT (( #67 ) ) ;
#191 = ORIENTED_EDGE ( 'NONE', *, *, #158, .T. ) ;
#192 = UNCERTAINTY_MEASURE_WITH_UNIT (LENGTH_MEASURE( 1.000000000000000100E-005 ), #185, 'distance_accuracy_value', 'NONE');
#193 = COLOUR_RGB ( '',0.6862745098039215700, 0.6078431372549019100, 0.5294117647058823600 ) ;
#194 = EDGE_LOOP ( 'NONE', ( #11, #107, #35, #200 ) ) ;
#195 = DIRECTION ( 'NONE',  ( -0.0000000000000000000, 0.0000000000000000000, -1.000000000000000000 ) ) ;
#196 = DIRECTION ( 'NONE',  ( -1.000000000000000000, 0.0000000000000000000, 0.0000000000000000000 ) ) ;
#197 = LINE ( 'NONE', #40, #155 ) ;
#198 = DIRECTION ( 'NONE',  ( 1.000000000000000000, -0.0000000000000000000, -0.0000000000000000000 ) ) ;
#199 = LINE ( 'NONE', #204, #73 ) ;
#200 = ORIENTED_EDGE ( 'NONE', *, *, #76, .F. ) ;
#201 = APPLICATION_PROTOCOL_DEFINITION ( 'draft international standard', 'automotive_design', 1998, #117 ) ;
#202 =( NAMED_UNIT ( * ) SI_UNIT ( $, .STERADIAN. ) SOLID_ANGLE_UNIT ( ) );
#203 = AXIS2_PLACEMENT_3D ( 'NONE', #127, #167, #80 ) ;
#204 = CARTESIAN_POINT ( 'NONE',  ( 7.206746031746035900, 6.429395695523603200E-016, 5.249999999999999100 ) ) ;
#205 = SHAPE_DEFINITION_REPRESENTATION ( #94, #43 ) ;
#206 = VECTOR ( 'NONE', #198, 1000.000000000000000 ) ;
#207 = DIRECTION ( 'NONE',  ( 0.0000000000000000000, 0.0000000000000000000, -1.000000000000000000 ) ) ;
#208 = CIRCLE ( 'NONE', #93, 8.499999999999998200 ) ;
#209 = FACE_BOUND ( 'NONE', #12, .T. ) ;
#210 = ORIENTED_EDGE ( 'NONE', *, *, #139, .F. ) ;
#211 = STYLED_ITEM ( 'NONE', ( #190 ), #163 ) ;
#212 = AXIS2_PLACEMENT_3D ( 'NONE', #146, #125, #115 ) ;
#213 = CARTESIAN_POINT ( 'NONE',  ( -0.6999999999999992900, 0.0000000000000000000, 0.0000000000000000000 ) ) ;
#214 = CARTESIAN_POINT ( 'NONE',  ( 0.0000000000000000000, 0.0000000000000000000, 0.0000000000000000000 ) ) ;
ENDSEC;
END-ISO-10303-21;
