ISO-10303-21;
HEADER;
FILE_DESCRIPTION (( 'STEP AP214' ),
    '1' );
FILE_NAME ('Z42.ER1.003.020.STEP',
    '2021-03-31T07:35:32',
    ( '' ),
    ( '' ),
    'SwSTEP 2.0',
    'SolidWorks 2017',
    '' );
FILE_SCHEMA (( 'AUTOMOTIVE_DESIGN' ));
ENDSEC;

DATA;
#1 =( GEOMETRIC_REPRESENTATION_CONTEXT ( 3 ) GLOBAL_UNCERTAINTY_ASSIGNED_CONTEXT ( ( #94 ) ) GLOBAL_UNIT_ASSIGNED_CONTEXT ( ( #78, #164, #112 ) ) REPRESENTATION_CONTEXT ( 'NONE', 'WORKASPACE' ) );
#2 = DIRECTION ( 'NONE',  ( -2.065146995210484200E-016, -1.665334536937734300E-016, -1.000000000000000000 ) ) ;
#3 = EDGE_CURVE ( 'NONE', #188, #108, #165, .T. ) ;
#4 = DIRECTION ( 'NONE',  ( 1.000000000000000000, -4.259385939352627600E-017, -1.112428321272188000E-017 ) ) ;
#5 = CARTESIAN_POINT ( 'NONE',  ( -0.5499999999999949400, -5.406425304257322800E-015, 4.200000000000013500 ) ) ;
#6 = EDGE_CURVE ( 'NONE', #134, #108, #157, .T. ) ;
#7 = CARTESIAN_POINT ( 'NONE',  ( -0.5499999999999949400, 1.040834085586084300E-014, 1.387778780781445700E-014 ) ) ;
#8 = CARTESIAN_POINT ( 'NONE',  ( -0.5499999999999949400, 1.040834085586084300E-014, 1.387778780781445700E-014 ) ) ;
#9 = ADVANCED_FACE ( 'NONE', ( #38 ), #76, .T. ) ;
#10 = EDGE_LOOP ( 'NONE', ( #172, #111 ) ) ;
#11 = DIRECTION ( 'NONE',  ( 1.000000000000000000, -4.259385939352627600E-017, -1.112428321272188000E-017 ) ) ;
#12 = PLANE ( 'NONE',  #77 ) ;
#13 = AXIS2_PLACEMENT_3D ( 'NONE', #72, #193, #170 ) ;
#14 = DIRECTION ( 'NONE',  ( -2.478176394252580600E-016, -1.665334536937733300E-016, -1.000000000000000000 ) ) ;
#15 = CARTESIAN_POINT ( 'NONE',  ( 4.672198949343248000E-017, -5.406425304257242300E-015, 4.200000000000000200 ) ) ;
#16 = CIRCLE ( 'NONE', #31, 4.200000000000002000 ) ;
#17 = VERTEX_POINT ( 'NONE', #58 ) ;
#18 = ORIENTED_EDGE ( 'NONE', *, *, #180, .F. ) ;
#19 = FILL_AREA_STYLE_COLOUR ( '', #177 ) ;
#20 = ORIENTED_EDGE ( 'NONE', *, *, #86, .F. ) ;
#21 = AXIS2_PLACEMENT_3D ( 'NONE', #43, #103, #14 ) ;
#22 = DIRECTION ( 'NONE',  ( 1.000000000000000000, -4.259385939352627600E-017, -1.112428321272188000E-017 ) ) ;
#23 = CYLINDRICAL_SURFACE ( 'NONE', #44, 4.200000000000002000 ) ;
#24 = EDGE_LOOP ( 'NONE', ( #196, #32, #70, #25 ) ) ;
#25 = ORIENTED_EDGE ( 'NONE', *, *, #121, .T. ) ;
#26 = SURFACE_SIDE_STYLE ('',( #181 ) ) ;
#27 = DIRECTION ( 'NONE',  ( -1.960049020799458300E-016, -1.665334536937734100E-016, -1.000000000000000000 ) ) ;
#28 = CARTESIAN_POINT ( 'NONE',  ( 0.0000000000000000000, 0.0000000000000000000, 0.0000000000000000000 ) ) ;
#29 = CYLINDRICAL_SURFACE ( 'NONE', #71, 4.200000000000002000 ) ;
#30 = LINE ( 'NONE', #113, #133 ) ;
#31 = AXIS2_PLACEMENT_3D ( 'NONE', #174, #73, #208 ) ;
#32 = ORIENTED_EDGE ( 'NONE', *, *, #191, .F. ) ;
#33 = FACE_OUTER_BOUND ( 'NONE', #24, .T. ) ;
#34 = DIRECTION ( 'NONE',  ( -1.960049020799458300E-016, -1.665334536937733800E-016, -1.000000000000000000 ) ) ;
#35 = FILL_AREA_STYLE ('',( #19 ) ) ;
#36 = FILL_AREA_STYLE_COLOUR ( '', #161 ) ;
#37 = EDGE_CURVE ( 'NONE', #141, #188, #93, .T. ) ;
#38 = FACE_OUTER_BOUND ( 'NONE', #123, .T. ) ;
#39 =( NAMED_UNIT ( * ) PLANE_ANGLE_UNIT ( ) SI_UNIT ( $, .RADIAN. ) );
#40 = ADVANCED_FACE ( 'NONE', ( #153 ), #23, .F. ) ;
#41 = ORIENTED_EDGE ( 'NONE', *, *, #138, .T. ) ;
#42 = PRODUCT_CONTEXT ( 'NONE', #81, 'mechanical' ) ;
#43 = CARTESIAN_POINT ( 'NONE',  ( 7.206746031746035900, -6.938893903907228400E-015, -1.387778780781445700E-014 ) ) ;
#44 = AXIS2_PLACEMENT_3D ( 'NONE', #45, #171, #87 ) ;
#45 = CARTESIAN_POINT ( 'NONE',  ( 7.206746031746035900, -6.938893903907228400E-015, -1.387778780781445700E-014 ) ) ;
#46 = CARTESIAN_POINT ( 'NONE',  ( 7.206746031746035900, -6.938893903907228400E-015, -1.387778780781445700E-014 ) ) ;
#47 = EDGE_CURVE ( 'NONE', #141, #134, #175, .T. ) ;
#48 = ORIENTED_EDGE ( 'NONE', *, *, #121, .F. ) ;
#49 = ORIENTED_EDGE ( 'NONE', *, *, #6, .T. ) ;
#50 = CARTESIAN_POINT ( 'NONE',  ( -0.5499999999999949400, 1.040834085586084300E-014, 1.387778780781445700E-014 ) ) ;
#51 = SURFACE_SIDE_STYLE ('',( #151 ) ) ;
#52 = DIRECTION ( 'NONE',  ( 1.960049020799458300E-016, 1.665334536937734100E-016, 1.000000000000000000 ) ) ;
#53 = VECTOR ( 'NONE', #11, 1000.000000000000000 ) ;
#54 = ORIENTED_EDGE ( 'NONE', *, *, #37, .T. ) ;
#55 = ADVANCED_FACE ( 'NONE', ( #118 ), #209, .T. ) ;
#56 = APPLICATION_CONTEXT ( 'automotive_design' ) ;
#57 = PRODUCT_DEFINITION_FORMATION_WITH_SPECIFIED_SOURCE ( 'ANY', '', #96, .NOT_KNOWN. ) ;
#58 = CARTESIAN_POINT ( 'NONE',  ( -8.232205887357729800E-016, -6.994405055138487000E-016, -4.200000000000002000 ) ) ;
#59 = VECTOR ( 'NONE', #120, 1000.000000000000000 ) ;
#60 = AXIS2_PLACEMENT_3D ( 'NONE', #46, #192, #67 ) ;
#61 = ORIENTED_EDGE ( 'NONE', *, *, #191, .T. ) ;
#62 = CARTESIAN_POINT ( 'NONE',  ( -0.5499999999999948300, -4.597230530153453000E-015, 7.000000000000014200 ) ) ;
#63 = APPLICATION_PROTOCOL_DEFINITION ( 'draft international standard', 'automotive_design', 1998, #81 ) ;
#64 = FACE_OUTER_BOUND ( 'NONE', #204, .T. ) ;
#65 = ADVANCED_FACE ( 'NONE', ( #33 ), #29, .F. ) ;
#66 = DIRECTION ( 'NONE',  ( 0.0000000000000000000, 0.0000000000000000000, 1.000000000000000000 ) ) ;
#67 = DIRECTION ( 'NONE',  ( -2.478176394252580600E-016, -1.665334536937733300E-016, -1.000000000000000000 ) ) ;
#68 = UNCERTAINTY_MEASURE_WITH_UNIT (LENGTH_MEASURE( 1.000000000000000100E-005 ), #119, 'distance_accuracy_value', 'NONE');
#69 = CIRCLE ( 'NONE', #207, 7.000000000000002700 ) ;
#70 = ORIENTED_EDGE ( 'NONE', *, *, #104, .T. ) ;
#71 = AXIS2_PLACEMENT_3D ( 'NONE', #88, #106, #210 ) ;
#72 = CARTESIAN_POINT ( 'NONE',  ( -0.5499999999999949400, 1.040834085586084300E-014, 1.387778780781445700E-014 ) ) ;
#73 = DIRECTION ( 'NONE',  ( 1.000000000000000000, -4.259385939352627600E-017, -1.112428321272188000E-017 ) ) ;
#74 = CIRCLE ( 'NONE', #92, 4.200000000000002000 ) ;
#75 = ORIENTED_EDGE ( 'NONE', *, *, #47, .T. ) ;
#76 = CYLINDRICAL_SURFACE ( 'NONE', #21, 7.000000000000002700 ) ;
#77 = AXIS2_PLACEMENT_3D ( 'NONE', #89, #190, #27 ) ;
#78 =( LENGTH_UNIT ( ) NAMED_UNIT ( * ) SI_UNIT ( .MILLI., .METRE. ) );
#79 = PLANE ( 'NONE',  #124 ) ;
#80 = STYLED_ITEM ( 'NONE', ( #194 ), #167 ) ;
#81 = APPLICATION_CONTEXT ( 'automotive_design' ) ;
#82 = VERTEX_POINT ( 'NONE', #15 ) ;
#83 = DIRECTION ( 'NONE',  ( 1.000000000000000000, -4.259385939352627600E-017, -1.112428321272188000E-017 ) ) ;
#84 = CARTESIAN_POINT ( 'NONE',  ( -0.5499999999999963800, 9.242606680004428200E-015, -6.999999999999988500 ) ) ;
#85 = SURFACE_STYLE_USAGE ( .BOTH. , #26 ) ;
#86 = EDGE_CURVE ( 'NONE', #82, #17, #16, .T. ) ;
#87 = DIRECTION ( 'NONE',  ( -2.065146995210483700E-016, -1.665334536937734100E-016, -1.000000000000000000 ) ) ;
#88 = CARTESIAN_POINT ( 'NONE',  ( 7.206746031746035900, -6.938893903907228400E-015, -1.387778780781445700E-014 ) ) ;
#89 = CARTESIAN_POINT ( 'NONE',  ( 6.938893903907228400E-015, 4.200000000000002000, 1.387778780781445700E-014 ) ) ;
#90 = CIRCLE ( 'NONE', #197, 4.200000000000001100 ) ;
#91 = ORIENTED_EDGE ( 'NONE', *, *, #3, .F. ) ;
#92 = AXIS2_PLACEMENT_3D ( 'NONE', #201, #83, #166 ) ;
#93 = LINE ( 'NONE', #154, #53 ) ;
#94 = UNCERTAINTY_MEASURE_WITH_UNIT (LENGTH_MEASURE( 1.000000000000000100E-005 ), #78, 'distance_accuracy_value', 'NONE');
#95 = PRESENTATION_LAYER_ASSIGNMENT (  '', '', ( #80 ) ) ;
#96 = PRODUCT ( 'Z42.ER1.003.020', 'Z42.ER1.003.020', '', ( #42 ) ) ;
#97 = DIRECTION ( 'NONE',  ( 1.000000000000000000, -4.259385939352627600E-017, -1.112428321272188000E-017 ) ) ;
#98 = PRODUCT_RELATED_PRODUCT_CATEGORY ( 'part', '', ( #96 ) ) ;
#99 = VERTEX_POINT ( 'NONE', #158 ) ;
#100 = ORIENTED_EDGE ( 'NONE', *, *, #180, .T. ) ;
#101 = ADVANCED_FACE ( 'NONE', ( #64, #206 ), #12, .T. ) ;
#102 = ORIENTED_EDGE ( 'NONE', *, *, #130, .F. ) ;
#103 = DIRECTION ( 'NONE',  ( 1.000000000000000000, -4.259385939352627600E-017, -1.112428321272188000E-017 ) ) ;
#104 = EDGE_CURVE ( 'NONE', #99, #17, #160, .T. ) ;
#105 = CIRCLE ( 'NONE', #200, 4.200000000000001100 ) ;
#106 = DIRECTION ( 'NONE',  ( 1.000000000000000000, -4.259385939352627600E-017, -1.112428321272188000E-017 ) ) ;
#107 = DIRECTION ( 'NONE',  ( -1.960049020799458300E-016, -1.665334536937733800E-016, -1.000000000000000000 ) ) ;
#108 = VERTEX_POINT ( 'NONE', #179 ) ;
#109 = PRODUCT_DEFINITION_CONTEXT ( 'detailed design', #56, 'design' ) ;
#110 = ORIENTED_EDGE ( 'NONE', *, *, #104, .F. ) ;
#111 = ORIENTED_EDGE ( 'NONE', *, *, #214, .F. ) ;
#112 =( NAMED_UNIT ( * ) SI_UNIT ( $, .STERADIAN. ) SOLID_ANGLE_UNIT ( ) );
#113 = CARTESIAN_POINT ( 'NONE',  ( 7.206746031746036800, -5.725101742751490400E-015, 4.199999999999988600 ) ) ;
#114 = MECHANICAL_DESIGN_GEOMETRIC_PRESENTATION_REPRESENTATION (  '', ( #80 ), #126 ) ;
#115 = VECTOR ( 'NONE', #212, 1000.000000000000000 ) ;
#116 = AXIS2_PLACEMENT_3D ( 'NONE', #168, #97, #34 ) ;
#117 = ADVANCED_FACE ( 'NONE', ( #199, #159 ), #79, .T. ) ;
#118 = FACE_OUTER_BOUND ( 'NONE', #183, .T. ) ;
#119 =( LENGTH_UNIT ( ) NAMED_UNIT ( * ) SI_UNIT ( .MILLI., .METRE. ) );
#120 = DIRECTION ( 'NONE',  ( 1.000000000000000000, -4.259385939352627600E-017, -1.112428321272188000E-017 ) ) ;
#121 = EDGE_CURVE ( 'NONE', #17, #82, #74, .T. ) ;
#122 = CARTESIAN_POINT ( 'NONE',  ( 7.206746031746037700, -4.915906968647666400E-015, 6.999999999999988500 ) ) ;
#123 = EDGE_LOOP ( 'NONE', ( #176, #140, #54, #102 ) ) ;
#124 = AXIS2_PLACEMENT_3D ( 'NONE', #202, #150, #52 ) ;
#125 = CLOSED_SHELL ( 'NONE', ( #55, #40, #65, #101, #9, #117 ) ) ;
#126 =( GEOMETRIC_REPRESENTATION_CONTEXT ( 3 ) GLOBAL_UNCERTAINTY_ASSIGNED_CONTEXT ( ( #68 ) ) GLOBAL_UNIT_ASSIGNED_CONTEXT ( ( #119, #169, #187 ) ) REPRESENTATION_CONTEXT ( 'NONE', 'WORKASPACE' ) );
#127 = EDGE_LOOP ( 'NONE', ( #61, #100 ) ) ;
#128 = VERTEX_POINT ( 'NONE', #5 ) ;
#129 = DIRECTION ( 'NONE',  ( -2.013518320330221700E-016, -1.665334536937733300E-016, -1.000000000000000000 ) ) ;
#130 = EDGE_CURVE ( 'NONE', #108, #188, #142, .T. ) ;
#131 =( NAMED_UNIT ( * ) SI_UNIT ( $, .STERADIAN. ) SOLID_ANGLE_UNIT ( ) );
#132 = CARTESIAN_POINT ( 'NONE',  ( -1.372034314559621300E-015, -1.165734175856414200E-015, -7.000000000000002700 ) ) ;
#133 = VECTOR ( 'NONE', #4, 1000.000000000000000 ) ;
#134 = VERTEX_POINT ( 'NONE', #62 ) ;
#135 = PRESENTATION_LAYER_ASSIGNMENT (  '', '', ( #211 ) ) ;
#136 = MECHANICAL_DESIGN_GEOMETRIC_PRESENTATION_REPRESENTATION (  '', ( #211 ), #178 ) ;
#137 = DIRECTION ( 'NONE',  ( 1.000000000000000000, 0.0000000000000000000, 0.0000000000000000000 ) ) ;
#138 = EDGE_CURVE ( 'NONE', #128, #82, #30, .T. ) ;
#139 = CARTESIAN_POINT ( 'NONE',  ( 7.206746031746035900, -7.638334409421076700E-015, -4.200000000000016200 ) ) ;
#140 = ORIENTED_EDGE ( 'NONE', *, *, #214, .T. ) ;
#141 = VERTEX_POINT ( 'NONE', #84 ) ;
#142 = CIRCLE ( 'NONE', #116, 7.000000000000002700 ) ;
#143 = AXIS2_PLACEMENT_3D ( 'NONE', #28, #155, #107 ) ;
#144 = EDGE_LOOP ( 'NONE', ( #18, #41, #163, #110 ) ) ;
#145 = ORIENTED_EDGE ( 'NONE', *, *, #37, .F. ) ;
#146 = FILL_AREA_STYLE ('',( #36 ) ) ;
#147 = SURFACE_STYLE_USAGE ( .BOTH. , #51 ) ;
#148 = AXIS2_PLACEMENT_3D ( 'NONE', #149, #66, #137 ) ;
#149 = CARTESIAN_POINT ( 'NONE',  ( 0.0000000000000000000, 0.0000000000000000000, 0.0000000000000000000 ) ) ;
#150 = DIRECTION ( 'NONE',  ( -1.000000000000000000, 4.259385939352631300E-017, 1.960049020799458300E-016 ) ) ;
#151 = SURFACE_STYLE_FILL_AREA ( #35 ) ;
#152 = APPLICATION_PROTOCOL_DEFINITION ( 'draft international standard', 'automotive_design', 1998, #56 ) ;
#153 = FACE_OUTER_BOUND ( 'NONE', #144, .T. ) ;
#154 = CARTESIAN_POINT ( 'NONE',  ( 7.206746031746035000, -8.104628079763642700E-015, -7.000000000000016900 ) ) ;
#155 = DIRECTION ( 'NONE',  ( 1.000000000000000000, -4.259385939352627600E-017, -1.112428321272188000E-017 ) ) ;
#156 = UNCERTAINTY_MEASURE_WITH_UNIT (LENGTH_MEASURE( 1.000000000000000100E-005 ), #184, 'distance_accuracy_value', 'NONE');
#157 = LINE ( 'NONE', #122, #59 ) ;
#158 = CARTESIAN_POINT ( 'NONE',  ( -0.5499999999999958300, 9.708900350346994300E-015, -4.199999999999987700 ) ) ;
#159 = FACE_OUTER_BOUND ( 'NONE', #10, .T. ) ;
#160 = LINE ( 'NONE', #139, #115 ) ;
#161 = COLOUR_RGB ( '',0.7529411764705882200, 0.7529411764705882200, 0.7529411764705882200 ) ;
#162 = PRODUCT_DEFINITION_SHAPE ( 'NONE', 'NONE',  #173 ) ;
#163 = ORIENTED_EDGE ( 'NONE', *, *, #86, .T. ) ;
#164 =( NAMED_UNIT ( * ) PLANE_ANGLE_UNIT ( ) SI_UNIT ( $, .RADIAN. ) );
#165 = CIRCLE ( 'NONE', #143, 7.000000000000002700 ) ;
#166 = DIRECTION ( 'NONE',  ( -1.960049020799458500E-016, -1.665334536937734300E-016, -1.000000000000000000 ) ) ;
#167 = ADVANCED_BREP_SHAPE_REPRESENTATION ( 'Z42.ER1.003.020', ( #189, #148 ), #1 ) ;
#168 = CARTESIAN_POINT ( 'NONE',  ( 0.0000000000000000000, 0.0000000000000000000, 0.0000000000000000000 ) ) ;
#169 =( NAMED_UNIT ( * ) PLANE_ANGLE_UNIT ( ) SI_UNIT ( $, .RADIAN. ) );
#170 = DIRECTION ( 'NONE',  ( -2.013518320330221700E-016, -1.665334536937733300E-016, -1.000000000000000000 ) ) ;
#171 = DIRECTION ( 'NONE',  ( 1.000000000000000000, -4.259385939352627600E-017, -1.112428321272188000E-017 ) ) ;
#172 = ORIENTED_EDGE ( 'NONE', *, *, #47, .F. ) ;
#173 = PRODUCT_DEFINITION ( 'UNKNOWN', '', #57, #109 ) ;
#174 = CARTESIAN_POINT ( 'NONE',  ( 0.0000000000000000000, 0.0000000000000000000, 0.0000000000000000000 ) ) ;
#175 = CIRCLE ( 'NONE', #13, 7.000000000000002700 ) ;
#176 = ORIENTED_EDGE ( 'NONE', *, *, #6, .F. ) ;
#177 = COLOUR_RGB ( '',0.7529411764705882200, 0.7529411764705882200, 0.7529411764705882200 ) ;
#178 =( GEOMETRIC_REPRESENTATION_CONTEXT ( 3 ) GLOBAL_UNCERTAINTY_ASSIGNED_CONTEXT ( ( #156 ) ) GLOBAL_UNIT_ASSIGNED_CONTEXT ( ( #184, #39, #131 ) ) REPRESENTATION_CONTEXT ( 'NONE', 'WORKASPACE' ) );
#179 = CARTESIAN_POINT ( 'NONE',  ( 7.786998248905429600E-017, -4.597230530153409600E-015, 7.000000000000000000 ) ) ;
#180 = EDGE_CURVE ( 'NONE', #128, #99, #105, .T. ) ;
#181 = SURFACE_STYLE_FILL_AREA ( #146 ) ;
#182 = DIRECTION ( 'NONE',  ( 1.000000000000000000, -4.259385939352627600E-017, -1.112428321272188000E-017 ) ) ;
#183 = EDGE_LOOP ( 'NONE', ( #75, #49, #91, #145 ) ) ;
#184 =( LENGTH_UNIT ( ) NAMED_UNIT ( * ) SI_UNIT ( .MILLI., .METRE. ) );
#185 = DIRECTION ( 'NONE',  ( -2.065146995210484200E-016, -1.665334536937734300E-016, -1.000000000000000000 ) ) ;
#186 = ORIENTED_EDGE ( 'NONE', *, *, #130, .T. ) ;
#187 =( NAMED_UNIT ( * ) SI_UNIT ( $, .STERADIAN. ) SOLID_ANGLE_UNIT ( ) );
#188 = VERTEX_POINT ( 'NONE', #132 ) ;
#189 = MANIFOLD_SOLID_BREP ( 'Rotation1', #125 ) ;
#190 = DIRECTION ( 'NONE',  ( 1.000000000000000000, -4.259385939352631300E-017, -1.960049020799458300E-016 ) ) ;
#191 = EDGE_CURVE ( 'NONE', #99, #128, #90, .T. ) ;
#192 = DIRECTION ( 'NONE',  ( 1.000000000000000000, -4.259385939352627600E-017, -1.112428321272188000E-017 ) ) ;
#193 = DIRECTION ( 'NONE',  ( 1.000000000000000000, -4.259385939352627600E-017, -1.112428321272188000E-017 ) ) ;
#194 = PRESENTATION_STYLE_ASSIGNMENT (( #85 ) ) ;
#195 = PRESENTATION_STYLE_ASSIGNMENT (( #147 ) ) ;
#196 = ORIENTED_EDGE ( 'NONE', *, *, #138, .F. ) ;
#197 = AXIS2_PLACEMENT_3D ( 'NONE', #50, #205, #2 ) ;
#198 = EDGE_LOOP ( 'NONE', ( #48, #20 ) ) ;
#199 = FACE_BOUND ( 'NONE', #127, .T. ) ;
#200 = AXIS2_PLACEMENT_3D ( 'NONE', #7, #182, #185 ) ;
#201 = CARTESIAN_POINT ( 'NONE',  ( 0.0000000000000000000, 0.0000000000000000000, 0.0000000000000000000 ) ) ;
#202 = CARTESIAN_POINT ( 'NONE',  ( -0.5500000000000018200, 7.000000000000004400, 0.0000000000000000000 ) ) ;
#203 = SHAPE_DEFINITION_REPRESENTATION ( #162, #167 ) ;
#204 = EDGE_LOOP ( 'NONE', ( #213, #186 ) ) ;
#205 = DIRECTION ( 'NONE',  ( 1.000000000000000000, -4.259385939352627600E-017, -1.112428321272188000E-017 ) ) ;
#206 = FACE_BOUND ( 'NONE', #198, .T. ) ;
#207 = AXIS2_PLACEMENT_3D ( 'NONE', #8, #22, #129 ) ;
#208 = DIRECTION ( 'NONE',  ( -1.960049020799458500E-016, -1.665334536937734300E-016, -1.000000000000000000 ) ) ;
#209 = CYLINDRICAL_SURFACE ( 'NONE', #60, 7.000000000000002700 ) ;
#210 = DIRECTION ( 'NONE',  ( -2.065146995210483700E-016, -1.665334536937734100E-016, -1.000000000000000000 ) ) ;
#211 = STYLED_ITEM ( 'NONE', ( #195 ), #189 ) ;
#212 = DIRECTION ( 'NONE',  ( 1.000000000000000000, -4.259385939352627600E-017, -1.112428321272188000E-017 ) ) ;
#213 = ORIENTED_EDGE ( 'NONE', *, *, #3, .T. ) ;
#214 = EDGE_CURVE ( 'NONE', #134, #141, #69, .T. ) ;
ENDSEC;
END-ISO-10303-21;
