ISO-10303-21;
HEADER;
FILE_DESCRIPTION (( 'STEP AP214' ),
    '1' );
FILE_NAME ('Z32.ER1.003.016.STEP',
    '2021-03-31T07:33:43',
    ( '' ),
    ( '' ),
    'SwSTEP 2.0',
    'SolidWorks 2017',
    '' );
FILE_SCHEMA (( 'AUTOMOTIVE_DESIGN' ));
ENDSEC;

DATA;
#1 =( NAMED_UNIT ( * ) PLANE_ANGLE_UNIT ( ) SI_UNIT ( $, .RADIAN. ) );
#2 = PRODUCT ( 'Z32.ER1.003.016', 'Z32.ER1.003.016', '', ( #16 ) ) ;
#3 = CARTESIAN_POINT ( 'NONE',  ( 0.0000000000000000000, 0.0000000000000000000, 0.0000000000000000000 ) ) ;
#4 = VERTEX_POINT ( 'NONE', #43 ) ;
#5 = ADVANCED_FACE ( 'NONE', ( #168, #67 ), #163, .T. ) ;
#6 = AXIS2_PLACEMENT_3D ( 'NONE', #128, #40, #143 ) ;
#7 = EDGE_LOOP ( 'NONE', ( #25, #201 ) ) ;
#8 = LINE ( 'NONE', #45, #94 ) ;
#9 = EDGE_CURVE ( 'NONE', #11, #80, #18, .T. ) ;
#10 = VECTOR ( 'NONE', #27, 1000.000000000000000 ) ;
#11 = VERTEX_POINT ( 'NONE', #44 ) ;
#12 = CARTESIAN_POINT ( 'NONE',  ( 0.0000000000000000000, 0.0000000000000000000, -5.099999999999998800 ) ) ;
#13 = ORIENTED_EDGE ( 'NONE', *, *, #105, .T. ) ;
#14 = SURFACE_SIDE_STYLE ('',( #79 ) ) ;
#15 = DIRECTION ( 'NONE',  ( 1.000000000000000000, -0.0000000000000000000, -0.0000000000000000000 ) ) ;
#16 = PRODUCT_CONTEXT ( 'NONE', #119, 'mechanical' ) ;
#17 = ADVANCED_FACE ( 'NONE', ( #149, #52 ), #214, .T. ) ;
#18 = CIRCLE ( 'NONE', #200, 3.199999999999999300 ) ;
#19 = AXIS2_PLACEMENT_3D ( 'NONE', #130, #28, #147 ) ;
#20 = ORIENTED_EDGE ( 'NONE', *, *, #129, .F. ) ;
#21 = AXIS2_PLACEMENT_3D ( 'NONE', #197, #179, #177 ) ;
#22 = DIRECTION ( 'NONE',  ( 1.000000000000000000, -0.0000000000000000000, -0.0000000000000000000 ) ) ;
#23 = PRODUCT_DEFINITION_CONTEXT ( 'detailed design', #53, 'design' ) ;
#24 = CARTESIAN_POINT ( 'NONE',  ( -0.4500000000000001200, 5.099999999999998800, 0.0000000000000000000 ) ) ;
#25 = ORIENTED_EDGE ( 'NONE', *, *, #193, .F. ) ;
#26 = PRODUCT_DEFINITION ( 'UNKNOWN', '', #39, #23 ) ;
#27 = DIRECTION ( 'NONE',  ( 1.000000000000000000, -0.0000000000000000000, -0.0000000000000000000 ) ) ;
#28 = DIRECTION ( 'NONE',  ( 1.000000000000000000, -0.0000000000000000000, -0.0000000000000000000 ) ) ;
#29 = DIRECTION ( 'NONE',  ( 0.0000000000000000000, 0.0000000000000000000, -1.000000000000000000 ) ) ;
#30 = DIRECTION ( 'NONE',  ( 1.000000000000000000, -0.0000000000000000000, -0.0000000000000000000 ) ) ;
#31 = EDGE_CURVE ( 'NONE', #4, #99, #32, .T. ) ;
#32 = LINE ( 'NONE', #211, #10 ) ;
#33 = STYLED_ITEM ( 'NONE', ( #108 ), #137 ) ;
#34 = CIRCLE ( 'NONE', #58, 3.199999999999999300 ) ;
#35 = DIRECTION ( 'NONE',  ( 1.000000000000000000, 0.0000000000000000000, 0.0000000000000000000 ) ) ;
#36 = ADVANCED_FACE ( 'NONE', ( #172 ), #106, .T. ) ;
#37 = VECTOR ( 'NONE', #131, 1000.000000000000000 ) ;
#38 = ADVANCED_BREP_SHAPE_REPRESENTATION ( 'Z32.ER1.003.016', ( #137, #157 ), #213 ) ;
#39 = PRODUCT_DEFINITION_FORMATION_WITH_SPECIFIED_SOURCE ( 'ANY', '', #2, .NOT_KNOWN. ) ;
#40 = DIRECTION ( 'NONE',  ( 1.000000000000000000, -0.0000000000000000000, -0.0000000000000000000 ) ) ;
#41 = CIRCLE ( 'NONE', #48, 3.199999999999999300 ) ;
#42 = ORIENTED_EDGE ( 'NONE', *, *, #183, .F. ) ;
#43 = CARTESIAN_POINT ( 'NONE',  ( -0.4499999999999999000, 0.0000000000000000000, -5.099999999999998800 ) ) ;
#44 = CARTESIAN_POINT ( 'NONE',  ( -0.4499999999999999000, 3.918869757271529500E-016, 3.199999999999999300 ) ) ;
#45 = CARTESIAN_POINT ( 'NONE',  ( 7.206746031746035900, 6.245698675651499900E-016, 5.099999999999998800 ) ) ;
#46 = VERTEX_POINT ( 'NONE', #210 ) ;
#47 =( LENGTH_UNIT ( ) NAMED_UNIT ( * ) SI_UNIT ( .MILLI., .METRE. ) );
#48 = AXIS2_PLACEMENT_3D ( 'NONE', #132, #15, #29 ) ;
#49 = CARTESIAN_POINT ( 'NONE',  ( 7.206746031746035900, 0.0000000000000000000, 0.0000000000000000000 ) ) ;
#50 = DIRECTION ( 'NONE',  ( 1.000000000000000000, -0.0000000000000000000, -0.0000000000000000000 ) ) ;
#51 =( NAMED_UNIT ( * ) PLANE_ANGLE_UNIT ( ) SI_UNIT ( $, .RADIAN. ) );
#52 = FACE_OUTER_BOUND ( 'NONE', #7, .T. ) ;
#53 = APPLICATION_CONTEXT ( 'automotive_design' ) ;
#54 =( GEOMETRIC_REPRESENTATION_CONTEXT ( 3 ) GLOBAL_UNCERTAINTY_ASSIGNED_CONTEXT ( ( #111 ) ) GLOBAL_UNIT_ASSIGNED_CONTEXT ( ( #134, #152, #70 ) ) REPRESENTATION_CONTEXT ( 'NONE', 'WORKASPACE' ) );
#55 = ORIENTED_EDGE ( 'NONE', *, *, #193, .T. ) ;
#56 = CYLINDRICAL_SURFACE ( 'NONE', #101, 5.099999999999998800 ) ;
#57 = ORIENTED_EDGE ( 'NONE', *, *, #136, .T. ) ;
#58 = AXIS2_PLACEMENT_3D ( 'NONE', #148, #96, #66 ) ;
#59 = SHAPE_DEFINITION_REPRESENTATION ( #204, #38 ) ;
#60 = VERTEX_POINT ( 'NONE', #188 ) ;
#61 = CARTESIAN_POINT ( 'NONE',  ( -0.4499999999999999000, 0.0000000000000000000, 0.0000000000000000000 ) ) ;
#62 = DIRECTION ( 'NONE',  ( 0.0000000000000000000, 0.0000000000000000000, -1.000000000000000000 ) ) ;
#63 = VERTEX_POINT ( 'NONE', #110 ) ;
#64 = CARTESIAN_POINT ( 'NONE',  ( 7.206746031746035900, 0.0000000000000000000, 0.0000000000000000000 ) ) ;
#65 =( NAMED_UNIT ( * ) SI_UNIT ( $, .STERADIAN. ) SOLID_ANGLE_UNIT ( ) );
#66 = DIRECTION ( 'NONE',  ( 0.0000000000000000000, 0.0000000000000000000, -1.000000000000000000 ) ) ;
#67 = FACE_BOUND ( 'NONE', #103, .T. ) ;
#68 = DIRECTION ( 'NONE',  ( 1.000000000000000000, -0.0000000000000000000, -0.0000000000000000000 ) ) ;
#69 = ORIENTED_EDGE ( 'NONE', *, *, #174, .T. ) ;
#70 =( NAMED_UNIT ( * ) SI_UNIT ( $, .STERADIAN. ) SOLID_ANGLE_UNIT ( ) );
#71 = APPLICATION_PROTOCOL_DEFINITION ( 'draft international standard', 'automotive_design', 1998, #53 ) ;
#72 = CIRCLE ( 'NONE', #75, 3.199999999999999300 ) ;
#73 = ADVANCED_FACE ( 'NONE', ( #181 ), #56, .T. ) ;
#74 = ORIENTED_EDGE ( 'NONE', *, *, #136, .F. ) ;
#75 = AXIS2_PLACEMENT_3D ( 'NONE', #3, #30, #151 ) ;
#76 = CIRCLE ( 'NONE', #169, 5.099999999999998800 ) ;
#77 = DIRECTION ( 'NONE',  ( -0.0000000000000000000, 0.0000000000000000000, -1.000000000000000000 ) ) ;
#78 = EDGE_CURVE ( 'NONE', #60, #156, #8, .T. ) ;
#79 = SURFACE_STYLE_FILL_AREA ( #150 ) ;
#80 = VERTEX_POINT ( 'NONE', #81 ) ;
#81 = CARTESIAN_POINT ( 'NONE',  ( -0.4499999999999999000, 0.0000000000000000000, -3.199999999999999300 ) ) ;
#82 = DIRECTION ( 'NONE',  ( 0.0000000000000000000, 0.0000000000000000000, -1.000000000000000000 ) ) ;
#83 = ORIENTED_EDGE ( 'NONE', *, *, #78, .T. ) ;
#84 = FILL_AREA_STYLE_COLOUR ( '', #185 ) ;
#85 = CARTESIAN_POINT ( 'NONE',  ( 0.0000000000000000000, 6.245698675651499900E-016, 5.099999999999998800 ) ) ;
#86 = FACE_OUTER_BOUND ( 'NONE', #146, .T. ) ;
#87 = LINE ( 'NONE', #92, #122 ) ;
#88 = MECHANICAL_DESIGN_GEOMETRIC_PRESENTATION_REPRESENTATION (  '', ( #33 ), #120 ) ;
#89 = STYLED_ITEM ( 'NONE', ( #205 ), #38 ) ;
#90 = SURFACE_STYLE_FILL_AREA ( #184 ) ;
#91 = ORIENTED_EDGE ( 'NONE', *, *, #129, .T. ) ;
#92 = CARTESIAN_POINT ( 'NONE',  ( 7.206746031746035900, 0.0000000000000000000, -3.199999999999999300 ) ) ;
#93 = AXIS2_PLACEMENT_3D ( 'NONE', #24, #176, #141 ) ;
#94 = VECTOR ( 'NONE', #209, 1000.000000000000000 ) ;
#95 =( LENGTH_UNIT ( ) NAMED_UNIT ( * ) SI_UNIT ( .MILLI., .METRE. ) );
#96 = DIRECTION ( 'NONE',  ( 1.000000000000000000, -0.0000000000000000000, -0.0000000000000000000 ) ) ;
#97 = CARTESIAN_POINT ( 'NONE',  ( 0.0000000000000000000, 0.0000000000000000000, 0.0000000000000000000 ) ) ;
#98 = SURFACE_STYLE_USAGE ( .BOTH. , #14 ) ;
#99 = VERTEX_POINT ( 'NONE', #12 ) ;
#100 = FILL_AREA_STYLE_COLOUR ( '', #158 ) ;
#101 = AXIS2_PLACEMENT_3D ( 'NONE', #125, #22, #162 ) ;
#102 = DIRECTION ( 'NONE',  ( 0.0000000000000000000, 0.0000000000000000000, 1.000000000000000000 ) ) ;
#103 = EDGE_LOOP ( 'NONE', ( #42, #191 ) ) ;
#104 = SURFACE_SIDE_STYLE ('',( #90 ) ) ;
#105 = EDGE_CURVE ( 'NONE', #80, #46, #87, .T. ) ;
#106 = CYLINDRICAL_SURFACE ( 'NONE', #6, 5.099999999999998800 ) ;
#107 = EDGE_CURVE ( 'NONE', #60, #4, #207, .T. ) ;
#108 = PRESENTATION_STYLE_ASSIGNMENT (( #98 ) ) ;
#109 = EDGE_LOOP ( 'NONE', ( #55, #83, #20, #153 ) ) ;
#110 = CARTESIAN_POINT ( 'NONE',  ( 0.0000000000000000000, 3.918869757271529500E-016, 3.199999999999999300 ) ) ;
#111 = UNCERTAINTY_MEASURE_WITH_UNIT (LENGTH_MEASURE( 1.000000000000000100E-005 ), #134, 'distance_accuracy_value', 'NONE');
#112 = AXIS2_PLACEMENT_3D ( 'NONE', #64, #50, #167 ) ;
#113 = ORIENTED_EDGE ( 'NONE', *, *, #107, .T. ) ;
#114 = CARTESIAN_POINT ( 'NONE',  ( 7.206746031746035900, 3.918869757271529500E-016, 3.199999999999999300 ) ) ;
#115 = CARTESIAN_POINT ( 'NONE',  ( 0.0000000000000000000, 0.0000000000000000000, 0.0000000000000000000 ) ) ;
#116 = DIRECTION ( 'NONE',  ( 1.000000000000000000, -0.0000000000000000000, -0.0000000000000000000 ) ) ;
#117 = CARTESIAN_POINT ( 'NONE',  ( 0.0000000000000000000, 0.0000000000000000000, 0.0000000000000000000 ) ) ;
#118 = ADVANCED_FACE ( 'NONE', ( #175 ), #138, .F. ) ;
#119 = APPLICATION_CONTEXT ( 'automotive_design' ) ;
#120 =( GEOMETRIC_REPRESENTATION_CONTEXT ( 3 ) GLOBAL_UNCERTAINTY_ASSIGNED_CONTEXT ( ( #198 ) ) GLOBAL_UNIT_ASSIGNED_CONTEXT ( ( #47, #51, #166 ) ) REPRESENTATION_CONTEXT ( 'NONE', 'WORKASPACE' ) );
#121 = AXIS2_PLACEMENT_3D ( 'NONE', #49, #194, #165 ) ;
#122 = VECTOR ( 'NONE', #133, 1000.000000000000000 ) ;
#123 = ORIENTED_EDGE ( 'NONE', *, *, #9, .F. ) ;
#124 = CARTESIAN_POINT ( 'NONE',  ( -1.897353801849632800E-016, 3.199999999999999300, 0.0000000000000000000 ) ) ;
#125 = CARTESIAN_POINT ( 'NONE',  ( 7.206746031746035900, 0.0000000000000000000, 0.0000000000000000000 ) ) ;
#126 = ORIENTED_EDGE ( 'NONE', *, *, #78, .F. ) ;
#127 = CLOSED_SHELL ( 'NONE', ( #36, #171, #118, #17, #73, #5 ) ) ;
#128 = CARTESIAN_POINT ( 'NONE',  ( 7.206746031746035900, 0.0000000000000000000, 0.0000000000000000000 ) ) ;
#129 = EDGE_CURVE ( 'NONE', #99, #156, #160, .T. ) ;
#130 = CARTESIAN_POINT ( 'NONE',  ( -0.4499999999999999000, 0.0000000000000000000, 0.0000000000000000000 ) ) ;
#131 = DIRECTION ( 'NONE',  ( 1.000000000000000000, -0.0000000000000000000, -0.0000000000000000000 ) ) ;
#132 = CARTESIAN_POINT ( 'NONE',  ( 0.0000000000000000000, 0.0000000000000000000, 0.0000000000000000000 ) ) ;
#133 = DIRECTION ( 'NONE',  ( 1.000000000000000000, -0.0000000000000000000, -0.0000000000000000000 ) ) ;
#134 =( LENGTH_UNIT ( ) NAMED_UNIT ( * ) SI_UNIT ( .MILLI., .METRE. ) );
#135 = ORIENTED_EDGE ( 'NONE', *, *, #140, .T. ) ;
#136 = EDGE_CURVE ( 'NONE', #156, #99, #76, .T. ) ;
#137 = MANIFOLD_SOLID_BREP ( 'Rotation1', #127 ) ;
#138 = CYLINDRICAL_SURFACE ( 'NONE', #112, 3.199999999999999300 ) ;
#139 = ORIENTED_EDGE ( 'NONE', *, *, #178, .F. ) ;
#140 = EDGE_CURVE ( 'NONE', #63, #46, #41, .T. ) ;
#141 = DIRECTION ( 'NONE',  ( 0.0000000000000000000, 0.0000000000000000000, 1.000000000000000000 ) ) ;
#142 = EDGE_LOOP ( 'NONE', ( #69, #202 ) ) ;
#143 = DIRECTION ( 'NONE',  ( 0.0000000000000000000, 0.0000000000000000000, -1.000000000000000000 ) ) ;
#144 = DIRECTION ( 'NONE',  ( 1.000000000000000000, -0.0000000000000000000, -0.0000000000000000000 ) ) ;
#145 = AXIS2_PLACEMENT_3D ( 'NONE', #97, #68, #82 ) ;
#146 = EDGE_LOOP ( 'NONE', ( #123, #208, #135, #159 ) ) ;
#147 = DIRECTION ( 'NONE',  ( 0.0000000000000000000, 0.0000000000000000000, -1.000000000000000000 ) ) ;
#148 = CARTESIAN_POINT ( 'NONE',  ( -0.4499999999999999000, 0.0000000000000000000, 0.0000000000000000000 ) ) ;
#149 = FACE_BOUND ( 'NONE', #142, .T. ) ;
#150 = FILL_AREA_STYLE ('',( #100 ) ) ;
#151 = DIRECTION ( 'NONE',  ( 0.0000000000000000000, 0.0000000000000000000, -1.000000000000000000 ) ) ;
#152 =( NAMED_UNIT ( * ) PLANE_ANGLE_UNIT ( ) SI_UNIT ( $, .RADIAN. ) );
#153 = ORIENTED_EDGE ( 'NONE', *, *, #31, .F. ) ;
#154 = MECHANICAL_DESIGN_GEOMETRIC_PRESENTATION_REPRESENTATION (  '', ( #89 ), #54 ) ;
#155 = APPLICATION_PROTOCOL_DEFINITION ( 'draft international standard', 'automotive_design', 1998, #119 ) ;
#156 = VERTEX_POINT ( 'NONE', #85 ) ;
#157 = AXIS2_PLACEMENT_3D ( 'NONE', #117, #102, #35 ) ;
#158 = COLOUR_RGB ( '',0.6470588235294118000, 0.6196078431372549200, 0.5882352941176470800 ) ;
#159 = ORIENTED_EDGE ( 'NONE', *, *, #105, .F. ) ;
#160 = CIRCLE ( 'NONE', #145, 5.099999999999998800 ) ;
#161 = PRESENTATION_LAYER_ASSIGNMENT (  '', '', ( #89 ) ) ;
#162 = DIRECTION ( 'NONE',  ( 0.0000000000000000000, 0.0000000000000000000, -1.000000000000000000 ) ) ;
#163 = PLANE ( 'NONE',  #180 ) ;
#164 = CIRCLE ( 'NONE', #19, 5.099999999999998800 ) ;
#165 = DIRECTION ( 'NONE',  ( 0.0000000000000000000, 0.0000000000000000000, -1.000000000000000000 ) ) ;
#166 =( NAMED_UNIT ( * ) SI_UNIT ( $, .STERADIAN. ) SOLID_ANGLE_UNIT ( ) );
#167 = DIRECTION ( 'NONE',  ( 0.0000000000000000000, 0.0000000000000000000, -1.000000000000000000 ) ) ;
#168 = FACE_OUTER_BOUND ( 'NONE', #212, .T. ) ;
#169 = AXIS2_PLACEMENT_3D ( 'NONE', #115, #116, #195 ) ;
#170 = UNCERTAINTY_MEASURE_WITH_UNIT (LENGTH_MEASURE( 1.000000000000000100E-005 ), #95, 'distance_accuracy_value', 'NONE');
#171 = ADVANCED_FACE ( 'NONE', ( #86 ), #196, .F. ) ;
#172 = FACE_OUTER_BOUND ( 'NONE', #109, .T. ) ;
#173 = EDGE_LOOP ( 'NONE', ( #126, #113, #182, #74 ) ) ;
#174 = EDGE_CURVE ( 'NONE', #80, #11, #34, .T. ) ;
#175 = FACE_OUTER_BOUND ( 'NONE', #186, .T. ) ;
#176 = DIRECTION ( 'NONE',  ( -1.000000000000000000, 0.0000000000000000000, 0.0000000000000000000 ) ) ;
#177 = DIRECTION ( 'NONE',  ( 0.0000000000000000000, 0.0000000000000000000, -1.000000000000000000 ) ) ;
#178 = EDGE_CURVE ( 'NONE', #11, #63, #190, .T. ) ;
#179 = DIRECTION ( 'NONE',  ( 1.000000000000000000, -0.0000000000000000000, -0.0000000000000000000 ) ) ;
#180 = AXIS2_PLACEMENT_3D ( 'NONE', #124, #192, #77 ) ;
#181 = FACE_OUTER_BOUND ( 'NONE', #173, .T. ) ;
#182 = ORIENTED_EDGE ( 'NONE', *, *, #31, .T. ) ;
#183 = EDGE_CURVE ( 'NONE', #46, #63, #72, .T. ) ;
#184 = FILL_AREA_STYLE ('',( #84 ) ) ;
#185 = COLOUR_RGB ( '',0.6470588235294118000, 0.6196078431372549200, 0.5882352941176470800 ) ;
#186 = EDGE_LOOP ( 'NONE', ( #139, #206, #13, #187 ) ) ;
#187 = ORIENTED_EDGE ( 'NONE', *, *, #183, .T. ) ;
#188 = CARTESIAN_POINT ( 'NONE',  ( -0.4499999999999999000, 6.245698675651499900E-016, 5.099999999999998800 ) ) ;
#189 = PRESENTATION_LAYER_ASSIGNMENT (  '', '', ( #33 ) ) ;
#190 = LINE ( 'NONE', #114, #37 ) ;
#191 = ORIENTED_EDGE ( 'NONE', *, *, #140, .F. ) ;
#192 = DIRECTION ( 'NONE',  ( 1.000000000000000000, 0.0000000000000000000, -0.0000000000000000000 ) ) ;
#193 = EDGE_CURVE ( 'NONE', #4, #60, #164, .T. ) ;
#194 = DIRECTION ( 'NONE',  ( 1.000000000000000000, -0.0000000000000000000, -0.0000000000000000000 ) ) ;
#195 = DIRECTION ( 'NONE',  ( 0.0000000000000000000, 0.0000000000000000000, -1.000000000000000000 ) ) ;
#196 = CYLINDRICAL_SURFACE ( 'NONE', #121, 3.199999999999999300 ) ;
#197 = CARTESIAN_POINT ( 'NONE',  ( -0.4499999999999999000, 0.0000000000000000000, 0.0000000000000000000 ) ) ;
#198 = UNCERTAINTY_MEASURE_WITH_UNIT (LENGTH_MEASURE( 1.000000000000000100E-005 ), #47, 'distance_accuracy_value', 'NONE');
#199 = SURFACE_STYLE_USAGE ( .BOTH. , #104 ) ;
#200 = AXIS2_PLACEMENT_3D ( 'NONE', #61, #144, #62 ) ;
#201 = ORIENTED_EDGE ( 'NONE', *, *, #107, .F. ) ;
#202 = ORIENTED_EDGE ( 'NONE', *, *, #9, .T. ) ;
#203 = PRODUCT_RELATED_PRODUCT_CATEGORY ( 'part', '', ( #2 ) ) ;
#204 = PRODUCT_DEFINITION_SHAPE ( 'NONE', 'NONE',  #26 ) ;
#205 = PRESENTATION_STYLE_ASSIGNMENT (( #199 ) ) ;
#206 = ORIENTED_EDGE ( 'NONE', *, *, #174, .F. ) ;
#207 = CIRCLE ( 'NONE', #21, 5.099999999999998800 ) ;
#208 = ORIENTED_EDGE ( 'NONE', *, *, #178, .T. ) ;
#209 = DIRECTION ( 'NONE',  ( 1.000000000000000000, -0.0000000000000000000, -0.0000000000000000000 ) ) ;
#210 = CARTESIAN_POINT ( 'NONE',  ( 0.0000000000000000000, 0.0000000000000000000, -3.199999999999999300 ) ) ;
#211 = CARTESIAN_POINT ( 'NONE',  ( 7.206746031746035900, 0.0000000000000000000, -5.099999999999998800 ) ) ;
#212 = EDGE_LOOP ( 'NONE', ( #91, #57 ) ) ;
#213 =( GEOMETRIC_REPRESENTATION_CONTEXT ( 3 ) GLOBAL_UNCERTAINTY_ASSIGNED_CONTEXT ( ( #170 ) ) GLOBAL_UNIT_ASSIGNED_CONTEXT ( ( #95, #1, #65 ) ) REPRESENTATION_CONTEXT ( 'NONE', 'WORKASPACE' ) );
#214 = PLANE ( 'NONE',  #93 ) ;
ENDSEC;
END-ISO-10303-21;
