ISO-10303-21;
HEADER;
FILE_DESCRIPTION (( 'STEP AP214' ),
    '1' );
FILE_NAME ('Z25.ER1.003.012.STEP',
    '2021-03-31T07:32:02',
    ( '' ),
    ( '' ),
    'SwSTEP 2.0',
    'SolidWorks 2017',
    '' );
FILE_SCHEMA (( 'AUTOMOTIVE_DESIGN' ));
ENDSEC;

DATA;
#1 = CARTESIAN_POINT ( 'NONE',  ( 7.206746031746035900, 0.0000000000000000000, 0.0000000000000000000 ) ) ;
#2 = LINE ( 'NONE', #10, #37 ) ;
#3 = CARTESIAN_POINT ( 'NONE',  ( -0.6499999999999995800, 0.0000000000000000000, 4.599999999999998800 ) ) ;
#4 = ORIENTED_EDGE ( 'NONE', *, *, #178, .T. ) ;
#5 = CARTESIAN_POINT ( 'NONE',  ( 0.0000000000000000000, 0.0000000000000000000, 0.0000000000000000000 ) ) ;
#6 = DIRECTION ( 'NONE',  ( -0.1008641710789470500, 0.0000000000000000000, 0.9949002055445344000 ) ) ;
#7 = EDGE_CURVE ( 'NONE', #100, #199, #216, .T. ) ;
#8 = ORIENTED_EDGE ( 'NONE', *, *, #7, .F. ) ;
#9 = DIRECTION ( 'NONE',  ( 0.0000000000000000000, 0.0000000000000000000, -1.000000000000000000 ) ) ;
#10 = CARTESIAN_POINT ( 'NONE',  ( 0.0000000000000000000, 0.0000000000000000000, 2.649999999999999000 ) ) ;
#11 = DIRECTION ( 'NONE',  ( 1.000000000000000000, -0.0000000000000000000, -0.0000000000000000000 ) ) ;
#12 = AXIS2_PLACEMENT_3D ( 'NONE', #49, #154, #209 ) ;
#13 = AXIS2_PLACEMENT_3D ( 'NONE', #250, #22, #159 ) ;
#14 = VECTOR ( 'NONE', #242, 1000.000000000000200 ) ;
#15 = ORIENTED_EDGE ( 'NONE', *, *, #55, .T. ) ;
#16 = AXIS2_PLACEMENT_3D ( 'NONE', #138, #92, #223 ) ;
#17 = SURFACE_SIDE_STYLE ('',( #27 ) ) ;
#18 = CIRCLE ( 'NONE', #184, 4.599999999999998800 ) ;
#19 = APPLICATION_CONTEXT ( 'automotive_design' ) ;
#20 = VERTEX_POINT ( 'NONE', #103 ) ;
#21 = VECTOR ( 'NONE', #6, 1000.000000000000200 ) ;
#22 = DIRECTION ( 'NONE',  ( -1.000000000000000000, 0.0000000000000000000, 0.0000000000000000000 ) ) ;
#23 = PRODUCT ( 'Z25.ER1.003.012', 'Z25.ER1.003.012', '', ( #141 ) ) ;
#24 = FACE_OUTER_BOUND ( 'NONE', #232, .T. ) ;
#25 = ORIENTED_EDGE ( 'NONE', *, *, #246, .T. ) ;
#26 = EDGE_CURVE ( 'NONE', #100, #83, #113, .T. ) ;
#27 = SURFACE_STYLE_FILL_AREA ( #99 ) ;
#28 =( GEOMETRIC_REPRESENTATION_CONTEXT ( 3 ) GLOBAL_UNCERTAINTY_ASSIGNED_CONTEXT ( ( #133 ) ) GLOBAL_UNIT_ASSIGNED_CONTEXT ( ( #227, #245, #195 ) ) REPRESENTATION_CONTEXT ( 'NONE', 'WORKASPACE' ) );
#29 = DIRECTION ( 'NONE',  ( -1.000000000000000000, 0.0000000000000000000, 0.0000000000000000000 ) ) ;
#30 = CARTESIAN_POINT ( 'NONE',  ( -0.4523066710532073200, 0.0000000000000000000, 0.0000000000000000000 ) ) ;
#31 = AXIS2_PLACEMENT_3D ( 'NONE', #5, #188, #240 ) ;
#32 = ORIENTED_EDGE ( 'NONE', *, *, #155, .F. ) ;
#33 =( NAMED_UNIT ( * ) SI_UNIT ( $, .STERADIAN. ) SOLID_ANGLE_UNIT ( ) );
#34 = FILL_AREA_STYLE_COLOUR ( '', #115 ) ;
#35 = ADVANCED_FACE ( 'NONE', ( #171 ), #185, .F. ) ;
#36 = ADVANCED_FACE ( 'NONE', ( #215 ), #162, .F. ) ;
#37 = VECTOR ( 'NONE', #114, 1000.000000000000200 ) ;
#38 = ORIENTED_EDGE ( 'NONE', *, *, #127, .T. ) ;
#39 = VECTOR ( 'NONE', #202, 1000.000000000000000 ) ;
#40 = EDGE_LOOP ( 'NONE', ( #32, #25, #177, #108 ) ) ;
#41 = PRODUCT_DEFINITION_FORMATION_WITH_SPECIFIED_SOURCE ( 'ANY', '', #23, .NOT_KNOWN. ) ;
#42 = PRODUCT_DEFINITION_SHAPE ( 'NONE', 'NONE',  #204 ) ;
#43 = AXIS2_PLACEMENT_3D ( 'NONE', #30, #220, #222 ) ;
#44 = ORIENTED_EDGE ( 'NONE', *, *, #86, .F. ) ;
#45 = EDGE_LOOP ( 'NONE', ( #163, #104, #44, #203 ) ) ;
#46 = CARTESIAN_POINT ( 'NONE',  ( -0.4523066710532073200, 0.0000000000000000000, -2.649999999999999000 ) ) ;
#47 = CYLINDRICAL_SURFACE ( 'NONE', #158, 4.599999999999997900 ) ;
#48 = ORIENTED_EDGE ( 'NONE', *, *, #145, .F. ) ;
#49 = CARTESIAN_POINT ( 'NONE',  ( 0.0000000000000000000, 0.0000000000000000000, 0.0000000000000000000 ) ) ;
#50 =( LENGTH_UNIT ( ) NAMED_UNIT ( * ) SI_UNIT ( .MILLI., .METRE. ) );
#51 = APPLICATION_PROTOCOL_DEFINITION ( 'draft international standard', 'automotive_design', 1998, #123 ) ;
#52 = VECTOR ( 'NONE', #84, 1000.000000000000000 ) ;
#53 =( GEOMETRIC_REPRESENTATION_CONTEXT ( 3 ) GLOBAL_UNCERTAINTY_ASSIGNED_CONTEXT ( ( #140 ) ) GLOBAL_UNIT_ASSIGNED_CONTEXT ( ( #50, #152, #33 ) ) REPRESENTATION_CONTEXT ( 'NONE', 'WORKASPACE' ) );
#54 = ORIENTED_EDGE ( 'NONE', *, *, #130, .T. ) ;
#55 = EDGE_CURVE ( 'NONE', #100, #20, #238, .T. ) ;
#56 = CONICAL_SURFACE ( 'NONE', #201, 4.599999999999998800, 1.469760343000857700 ) ;
#57 = ORIENTED_EDGE ( 'NONE', *, *, #74, .T. ) ;
#58 = DIRECTION ( 'NONE',  ( 0.0000000000000000000, 0.0000000000000000000, -1.000000000000000000 ) ) ;
#59 = DIRECTION ( 'NONE',  ( 1.000000000000000000, -0.0000000000000000000, -0.0000000000000000000 ) ) ;
#60 = AXIS2_PLACEMENT_3D ( 'NONE', #237, #236, #149 ) ;
#61 = EDGE_LOOP ( 'NONE', ( #142, #98, #63, #186 ) ) ;
#62 = CARTESIAN_POINT ( 'NONE',  ( -0.1976933289467930600, 0.0000000000000000000, 0.0000000000000000000 ) ) ;
#63 = ORIENTED_EDGE ( 'NONE', *, *, #26, .T. ) ;
#64 = AXIS2_PLACEMENT_3D ( 'NONE', #181, #59, #58 ) ;
#65 = STYLED_ITEM ( 'NONE', ( #251 ), #228 ) ;
#66 = CARTESIAN_POINT ( 'NONE',  ( 7.206746031746035900, 0.0000000000000000000, 0.0000000000000000000 ) ) ;
#67 = CONICAL_SURFACE ( 'NONE', #80, 2.649999999999999000, 1.469760343000857200 ) ;
#68 = ORIENTED_EDGE ( 'NONE', *, *, #111, .T. ) ;
#69 = ORIENTED_EDGE ( 'NONE', *, *, #111, .F. ) ;
#70 = DIRECTION ( 'NONE',  ( -1.000000000000000000, 0.0000000000000000000, 0.0000000000000000000 ) ) ;
#71 = FILL_AREA_STYLE_COLOUR ( '', #75 ) ;
#72 = CARTESIAN_POINT ( 'NONE',  ( 0.0000000000000000000, 3.245314017740485000E-016, 2.649999999999999000 ) ) ;
#73 = ADVANCED_FACE ( 'NONE', ( #196 ), #67, .T. ) ;
#74 = EDGE_CURVE ( 'NONE', #198, #224, #182, .T. ) ;
#75 = COLOUR_RGB ( '',0.7529411764705882200, 0.7529411764705882200, 0.7529411764705882200 ) ;
#76 = STYLED_ITEM ( 'NONE', ( #230 ), #197 ) ;
#77 = ORIENTED_EDGE ( 'NONE', *, *, #7, .T. ) ;
#78 = ADVANCED_FACE ( 'NONE', ( #24 ), #56, .F. ) ;
#79 = VECTOR ( 'NONE', #170, 1000.000000000000000 ) ;
#80 = AXIS2_PLACEMENT_3D ( 'NONE', #126, #200, #135 ) ;
#81 = MECHANICAL_DESIGN_GEOMETRIC_PRESENTATION_REPRESENTATION (  '', ( #76 ), #28 ) ;
#82 = LINE ( 'NONE', #226, #14 ) ;
#83 = VERTEX_POINT ( 'NONE', #134 ) ;
#84 = DIRECTION ( 'NONE',  ( 1.000000000000000000, -0.0000000000000000000, -0.0000000000000000000 ) ) ;
#85 = DIRECTION ( 'NONE',  ( 1.000000000000000000, -0.0000000000000000000, -0.0000000000000000000 ) ) ;
#86 = EDGE_CURVE ( 'NONE', #224, #198, #150, .T. ) ;
#87 = CARTESIAN_POINT ( 'NONE',  ( -0.6499999999999995800, 0.0000000000000000000, 0.0000000000000000000 ) ) ;
#88 = DIRECTION ( 'NONE',  ( 0.0000000000000000000, 0.0000000000000000000, 1.000000000000000000 ) ) ;
#89 = FACE_OUTER_BOUND ( 'NONE', #248, .T. ) ;
#90 = VERTEX_POINT ( 'NONE', #3 ) ;
#91 = PRESENTATION_LAYER_ASSIGNMENT (  '', '', ( #76 ) ) ;
#92 = DIRECTION ( 'NONE',  ( 1.000000000000000000, -0.0000000000000000000, -0.0000000000000000000 ) ) ;
#93 = CARTESIAN_POINT ( 'NONE',  ( -0.6499999999999995800, 0.0000000000000000000, 4.599999999999998800 ) ) ;
#94 = ORIENTED_EDGE ( 'NONE', *, *, #127, .F. ) ;
#95 =( LENGTH_UNIT ( ) NAMED_UNIT ( * ) SI_UNIT ( .MILLI., .METRE. ) );
#96 = EDGE_CURVE ( 'NONE', #20, #100, #112, .T. ) ;
#97 = PRODUCT_DEFINITION_CONTEXT ( 'detailed design', #123, 'design' ) ;
#98 = ORIENTED_EDGE ( 'NONE', *, *, #55, .F. ) ;
#99 = FILL_AREA_STYLE ('',( #71 ) ) ;
#100 = VERTEX_POINT ( 'NONE', #46 ) ;
#101 = AXIS2_PLACEMENT_3D ( 'NONE', #1, #109, #131 ) ;
#102 = EDGE_CURVE ( 'NONE', #20, #254, #221, .T. ) ;
#103 = CARTESIAN_POINT ( 'NONE',  ( -0.4523066710532073200, 3.245314017740485000E-016, 2.649999999999999000 ) ) ;
#104 = ORIENTED_EDGE ( 'NONE', *, *, #145, .T. ) ;
#105 = CARTESIAN_POINT ( 'NONE',  ( -0.6499999999999995800, 5.633375276077823100E-016, -4.599999999999998800 ) ) ;
#106 = AXIS2_PLACEMENT_3D ( 'NONE', #62, #183, #110 ) ;
#107 = CARTESIAN_POINT ( 'NONE',  ( -0.6499999999999995800, 0.0000000000000000000, 0.0000000000000000000 ) ) ;
#108 = ORIENTED_EDGE ( 'NONE', *, *, #130, .F. ) ;
#109 = DIRECTION ( 'NONE',  ( 1.000000000000000000, -0.0000000000000000000, -0.0000000000000000000 ) ) ;
#110 = DIRECTION ( 'NONE',  ( 0.0000000000000000000, 0.0000000000000000000, -1.000000000000000000 ) ) ;
#111 = EDGE_CURVE ( 'NONE', #90, #199, #18, .T. ) ;
#112 = CIRCLE ( 'NONE', #60, 2.649999999999999000 ) ;
#113 = LINE ( 'NONE', #146, #39 ) ;
#114 = DIRECTION ( 'NONE',  ( -0.1008641710789474900, 0.0000000000000000000, 0.9949002055445344000 ) ) ;
#115 = COLOUR_RGB ( '',0.7529411764705882200, 0.7529411764705882200, 0.7529411764705882200 ) ;
#116 = CARTESIAN_POINT ( 'NONE',  ( 7.206746031746035900, 0.0000000000000000000, 0.0000000000000000000 ) ) ;
#117 = VECTOR ( 'NONE', #252, 1000.000000000000200 ) ;
#118 = CARTESIAN_POINT ( 'NONE',  ( -0.6499999999999995800, 5.633375276077823100E-016, -4.599999999999998800 ) ) ;
#119 = LINE ( 'NONE', #208, #79 ) ;
#120 = ORIENTED_EDGE ( 'NONE', *, *, #194, .F. ) ;
#121 = DIRECTION ( 'NONE',  ( 0.0000000000000000000, 0.0000000000000000000, 1.000000000000000000 ) ) ;
#122 = ADVANCED_FACE ( 'NONE', ( #89 ), #175, .T. ) ;
#123 = APPLICATION_CONTEXT ( 'automotive_design' ) ;
#124 = UNCERTAINTY_MEASURE_WITH_UNIT (LENGTH_MEASURE( 1.000000000000000100E-005 ), #95, 'distance_accuracy_value', 'NONE');
#125 = FACE_OUTER_BOUND ( 'NONE', #45, .T. ) ;
#126 = CARTESIAN_POINT ( 'NONE',  ( 0.0000000000000000000, 0.0000000000000000000, 0.0000000000000000000 ) ) ;
#127 = EDGE_CURVE ( 'NONE', #254, #83, #205, .T. ) ;
#128 = ORIENTED_EDGE ( 'NONE', *, *, #96, .F. ) ;
#129 = DIRECTION ( 'NONE',  ( 0.0000000000000000000, 0.0000000000000000000, -1.000000000000000000 ) ) ;
#130 = EDGE_CURVE ( 'NONE', #254, #198, #2, .T. ) ;
#131 = DIRECTION ( 'NONE',  ( 0.0000000000000000000, 0.0000000000000000000, -1.000000000000000000 ) ) ;
#132 = EDGE_LOOP ( 'NONE', ( #234, #94, #54, #57 ) ) ;
#133 = UNCERTAINTY_MEASURE_WITH_UNIT (LENGTH_MEASURE( 1.000000000000000100E-005 ), #227, 'distance_accuracy_value', 'NONE');
#134 = CARTESIAN_POINT ( 'NONE',  ( 0.0000000000000000000, 0.0000000000000000000, -2.649999999999999000 ) ) ;
#135 = DIRECTION ( 'NONE',  ( 0.0000000000000000000, 0.0000000000000000000, 1.000000000000000000 ) ) ;
#136 = DIRECTION ( 'NONE',  ( 1.000000000000000000, -0.0000000000000000000, -0.0000000000000000000 ) ) ;
#137 = CARTESIAN_POINT ( 'NONE',  ( -0.1976933289467930600, 5.633375276077822100E-016, 4.599999999999997900 ) ) ;
#138 = CARTESIAN_POINT ( 'NONE',  ( -0.6499999999999995800, 0.0000000000000000000, 0.0000000000000000000 ) ) ;
#139 = LINE ( 'NONE', #93, #21 ) ;
#140 = UNCERTAINTY_MEASURE_WITH_UNIT (LENGTH_MEASURE( 1.000000000000000100E-005 ), #50, 'distance_accuracy_value', 'NONE');
#141 = PRODUCT_CONTEXT ( 'NONE', #19, 'mechanical' ) ;
#142 = ORIENTED_EDGE ( 'NONE', *, *, #102, .F. ) ;
#143 = ADVANCED_FACE ( 'NONE', ( #160 ), #231, .T. ) ;
#144 =( GEOMETRIC_REPRESENTATION_CONTEXT ( 3 ) GLOBAL_UNCERTAINTY_ASSIGNED_CONTEXT ( ( #124 ) ) GLOBAL_UNIT_ASSIGNED_CONTEXT ( ( #95, #174, #193 ) ) REPRESENTATION_CONTEXT ( 'NONE', 'WORKASPACE' ) );
#145 = EDGE_CURVE ( 'NONE', #90, #198, #119, .T. ) ;
#146 = CARTESIAN_POINT ( 'NONE',  ( 7.206746031746035900, 0.0000000000000000000, -2.649999999999999000 ) ) ;
#147 = FACE_OUTER_BOUND ( 'NONE', #61, .T. ) ;
#148 = CARTESIAN_POINT ( 'NONE',  ( 7.206746031746035900, 3.245314017740485000E-016, 2.649999999999999000 ) ) ;
#149 = DIRECTION ( 'NONE',  ( 0.0000000000000000000, 0.0000000000000000000, -1.000000000000000000 ) ) ;
#150 = CIRCLE ( 'NONE', #235, 4.599999999999997900 ) ;
#151 = DIRECTION ( 'NONE',  ( 0.0000000000000000000, 0.0000000000000000000, -1.000000000000000000 ) ) ;
#152 =( NAMED_UNIT ( * ) PLANE_ANGLE_UNIT ( ) SI_UNIT ( $, .RADIAN. ) );
#153 = SHAPE_DEFINITION_REPRESENTATION ( #42, #197 ) ;
#154 = DIRECTION ( 'NONE',  ( 1.000000000000000000, -0.0000000000000000000, -0.0000000000000000000 ) ) ;
#155 = EDGE_CURVE ( 'NONE', #83, #254, #176, .T. ) ;
#156 = DIRECTION ( 'NONE',  ( 1.000000000000000000, 0.0000000000000000000, 0.0000000000000000000 ) ) ;
#157 = VECTOR ( 'NONE', #136, 1000.000000000000000 ) ;
#158 = AXIS2_PLACEMENT_3D ( 'NONE', #116, #173, #151 ) ;
#159 = DIRECTION ( 'NONE',  ( 0.0000000000000000000, 0.0000000000000000000, 1.000000000000000000 ) ) ;
#160 = FACE_OUTER_BOUND ( 'NONE', #132, .T. ) ;
#161 = PRESENTATION_LAYER_ASSIGNMENT (  '', '', ( #65 ) ) ;
#162 = CONICAL_SURFACE ( 'NONE', #13, 4.599999999999998800, 1.469760343000857700 ) ;
#163 = ORIENTED_EDGE ( 'NONE', *, *, #194, .T. ) ;
#164 = EDGE_CURVE ( 'NONE', #199, #224, #211, .T. ) ;
#165 = DIRECTION ( 'NONE',  ( 0.0000000000000000000, 0.0000000000000000000, -1.000000000000000000 ) ) ;
#166 = CIRCLE ( 'NONE', #16, 4.599999999999998800 ) ;
#167 = CLOSED_SHELL ( 'NONE', ( #73, #190, #36, #35, #229, #78, #122, #143 ) ) ;
#168 = DIRECTION ( 'NONE',  ( 1.000000000000000000, -0.0000000000000000000, -0.0000000000000000000 ) ) ;
#169 = SURFACE_SIDE_STYLE ('',( #218 ) ) ;
#170 = DIRECTION ( 'NONE',  ( 1.000000000000000000, -0.0000000000000000000, -0.0000000000000000000 ) ) ;
#171 = FACE_OUTER_BOUND ( 'NONE', #212, .T. ) ;
#172 = ORIENTED_EDGE ( 'NONE', *, *, #96, .T. ) ;
#173 = DIRECTION ( 'NONE',  ( 1.000000000000000000, -0.0000000000000000000, -0.0000000000000000000 ) ) ;
#174 =( NAMED_UNIT ( * ) PLANE_ANGLE_UNIT ( ) SI_UNIT ( $, .RADIAN. ) );
#175 = CYLINDRICAL_SURFACE ( 'NONE', #101, 4.599999999999997900 ) ;
#176 = CIRCLE ( 'NONE', #12, 2.649999999999999000 ) ;
#177 = ORIENTED_EDGE ( 'NONE', *, *, #86, .T. ) ;
#178 = EDGE_CURVE ( 'NONE', #20, #90, #139, .T. ) ;
#179 = CYLINDRICAL_SURFACE ( 'NONE', #249, 2.649999999999999000 ) ;
#180 = ORIENTED_EDGE ( 'NONE', *, *, #74, .F. ) ;
#181 = CARTESIAN_POINT ( 'NONE',  ( 7.206746031746035900, 0.0000000000000000000, 0.0000000000000000000 ) ) ;
#182 = CIRCLE ( 'NONE', #106, 4.599999999999997900 ) ;
#183 = DIRECTION ( 'NONE',  ( 1.000000000000000000, -0.0000000000000000000, -0.0000000000000000000 ) ) ;
#184 = AXIS2_PLACEMENT_3D ( 'NONE', #107, #85, #129 ) ;
#185 = CYLINDRICAL_SURFACE ( 'NONE', #64, 2.649999999999999000 ) ;
#186 = ORIENTED_EDGE ( 'NONE', *, *, #155, .T. ) ;
#187 = ORIENTED_EDGE ( 'NONE', *, *, #164, .T. ) ;
#188 = DIRECTION ( 'NONE',  ( 1.000000000000000000, -0.0000000000000000000, -0.0000000000000000000 ) ) ;
#189 = DIRECTION ( 'NONE',  ( 0.0000000000000000000, 0.0000000000000000000, 1.000000000000000000 ) ) ;
#190 = ADVANCED_FACE ( 'NONE', ( #125 ), #47, .T. ) ;
#191 = CARTESIAN_POINT ( 'NONE',  ( 0.0000000000000000000, 0.0000000000000000000, 0.0000000000000000000 ) ) ;
#192 = PRODUCT_RELATED_PRODUCT_CATEGORY ( 'part', '', ( #23 ) ) ;
#193 =( NAMED_UNIT ( * ) SI_UNIT ( $, .STERADIAN. ) SOLID_ANGLE_UNIT ( ) );
#194 = EDGE_CURVE ( 'NONE', #199, #90, #166, .T. ) ;
#195 =( NAMED_UNIT ( * ) SI_UNIT ( $, .STERADIAN. ) SOLID_ANGLE_UNIT ( ) );
#196 = FACE_OUTER_BOUND ( 'NONE', #40, .T. ) ;
#197 = ADVANCED_BREP_SHAPE_REPRESENTATION ( 'Z25.ER1.003.012', ( #228, #253 ), #144 ) ;
#198 = VERTEX_POINT ( 'NONE', #137 ) ;
#199 = VERTEX_POINT ( 'NONE', #118 ) ;
#200 = DIRECTION ( 'NONE',  ( -1.000000000000000000, 0.0000000000000000000, 0.0000000000000000000 ) ) ;
#201 = AXIS2_PLACEMENT_3D ( 'NONE', #87, #29, #88 ) ;
#202 = DIRECTION ( 'NONE',  ( 1.000000000000000000, -0.0000000000000000000, -0.0000000000000000000 ) ) ;
#203 = ORIENTED_EDGE ( 'NONE', *, *, #164, .F. ) ;
#204 = PRODUCT_DEFINITION ( 'UNKNOWN', '', #41, #97 ) ;
#205 = CIRCLE ( 'NONE', #31, 2.649999999999999000 ) ;
#206 = FILL_AREA_STYLE ('',( #34 ) ) ;
#207 = CARTESIAN_POINT ( 'NONE',  ( -0.1976933289467930600, 0.0000000000000000000, -4.599999999999997900 ) ) ;
#208 = CARTESIAN_POINT ( 'NONE',  ( 7.206746031746035900, 5.633375276077822100E-016, 4.599999999999997900 ) ) ;
#209 = DIRECTION ( 'NONE',  ( 0.0000000000000000000, 0.0000000000000000000, -1.000000000000000000 ) ) ;
#210 = SURFACE_STYLE_USAGE ( .BOTH. , #17 ) ;
#211 = LINE ( 'NONE', #225, #157 ) ;
#212 = EDGE_LOOP ( 'NONE', ( #128, #243, #38, #247 ) ) ;
#213 = APPLICATION_PROTOCOL_DEFINITION ( 'draft international standard', 'automotive_design', 1998, #19 ) ;
#214 = MECHANICAL_DESIGN_GEOMETRIC_PRESENTATION_REPRESENTATION (  '', ( #65 ), #53 ) ;
#215 = FACE_OUTER_BOUND ( 'NONE', #217, .T. ) ;
#216 = LINE ( 'NONE', #105, #117 ) ;
#217 = EDGE_LOOP ( 'NONE', ( #172, #77, #69, #239 ) ) ;
#218 = SURFACE_STYLE_FILL_AREA ( #206 ) ;
#219 = CARTESIAN_POINT ( 'NONE',  ( -0.1976933289467930600, 0.0000000000000000000, 0.0000000000000000000 ) ) ;
#220 = DIRECTION ( 'NONE',  ( 1.000000000000000000, -0.0000000000000000000, -0.0000000000000000000 ) ) ;
#221 = LINE ( 'NONE', #148, #52 ) ;
#222 = DIRECTION ( 'NONE',  ( 0.0000000000000000000, 0.0000000000000000000, -1.000000000000000000 ) ) ;
#223 = DIRECTION ( 'NONE',  ( 0.0000000000000000000, 0.0000000000000000000, -1.000000000000000000 ) ) ;
#224 = VERTEX_POINT ( 'NONE', #207 ) ;
#225 = CARTESIAN_POINT ( 'NONE',  ( 7.206746031746035900, 0.0000000000000000000, -4.599999999999997900 ) ) ;
#226 = CARTESIAN_POINT ( 'NONE',  ( 0.0000000000000000000, 3.245314017740485000E-016, -2.649999999999999000 ) ) ;
#227 =( LENGTH_UNIT ( ) NAMED_UNIT ( * ) SI_UNIT ( .MILLI., .METRE. ) );
#228 = MANIFOLD_SOLID_BREP ( 'Rotation1', #167 ) ;
#229 = ADVANCED_FACE ( 'NONE', ( #147 ), #179, .F. ) ;
#230 = PRESENTATION_STYLE_ASSIGNMENT (( #210 ) ) ;
#231 = CONICAL_SURFACE ( 'NONE', #233, 2.649999999999999000, 1.469760343000857200 ) ;
#232 = EDGE_LOOP ( 'NONE', ( #8, #15, #4, #120 ) ) ;
#233 = AXIS2_PLACEMENT_3D ( 'NONE', #244, #70, #189 ) ;
#234 = ORIENTED_EDGE ( 'NONE', *, *, #246, .F. ) ;
#235 = AXIS2_PLACEMENT_3D ( 'NONE', #219, #168, #165 ) ;
#236 = DIRECTION ( 'NONE',  ( 1.000000000000000000, -0.0000000000000000000, -0.0000000000000000000 ) ) ;
#237 = CARTESIAN_POINT ( 'NONE',  ( -0.4523066710532073200, 0.0000000000000000000, 0.0000000000000000000 ) ) ;
#238 = CIRCLE ( 'NONE', #43, 2.649999999999999000 ) ;
#239 = ORIENTED_EDGE ( 'NONE', *, *, #178, .F. ) ;
#240 = DIRECTION ( 'NONE',  ( 0.0000000000000000000, 0.0000000000000000000, -1.000000000000000000 ) ) ;
#241 = SURFACE_STYLE_USAGE ( .BOTH. , #169 ) ;
#242 = DIRECTION ( 'NONE',  ( -0.1008641710789474900, 1.218401352191157500E-016, -0.9949002055445344000 ) ) ;
#243 = ORIENTED_EDGE ( 'NONE', *, *, #102, .T. ) ;
#244 = CARTESIAN_POINT ( 'NONE',  ( 0.0000000000000000000, 0.0000000000000000000, 0.0000000000000000000 ) ) ;
#245 =( NAMED_UNIT ( * ) PLANE_ANGLE_UNIT ( ) SI_UNIT ( $, .RADIAN. ) );
#246 = EDGE_CURVE ( 'NONE', #83, #224, #82, .T. ) ;
#247 = ORIENTED_EDGE ( 'NONE', *, *, #26, .F. ) ;
#248 = EDGE_LOOP ( 'NONE', ( #48, #68, #187, #180 ) ) ;
#249 = AXIS2_PLACEMENT_3D ( 'NONE', #66, #11, #9 ) ;
#250 = CARTESIAN_POINT ( 'NONE',  ( -0.6499999999999995800, 0.0000000000000000000, 0.0000000000000000000 ) ) ;
#251 = PRESENTATION_STYLE_ASSIGNMENT (( #241 ) ) ;
#252 = DIRECTION ( 'NONE',  ( -0.1008641710789470500, 1.218401352191157500E-016, -0.9949002055445344000 ) ) ;
#253 = AXIS2_PLACEMENT_3D ( 'NONE', #191, #121, #156 ) ;
#254 = VERTEX_POINT ( 'NONE', #72 ) ;
ENDSEC;
END-ISO-10303-21;
