ISO-10303-21;
HEADER;
FILE_DESCRIPTION (( 'STEP AP214' ),
    '1' );
FILE_NAME ('Z20.ER1.003.008.STEP',
    '2021-03-31T07:33:01',
    ( '' ),
    ( '' ),
    'SwSTEP 2.0',
    'SolidWorks 2017',
    '' );
FILE_SCHEMA (( 'AUTOMOTIVE_DESIGN' ));
ENDSEC;

DATA;
#1 = DIRECTION ( 'NONE',  ( 0.0000000000000000000, 0.0000000000000000000, -1.000000000000000000 ) ) ;
#2 = FACE_OUTER_BOUND ( 'NONE', #213, .T. ) ;
#3 = EDGE_CURVE ( 'NONE', #15, #168, #159, .T. ) ;
#4 = DIRECTION ( 'NONE',  ( 0.0000000000000000000, 0.0000000000000000000, 1.000000000000000000 ) ) ;
#5 = FACE_OUTER_BOUND ( 'NONE', #137, .T. ) ;
#6 = ORIENTED_EDGE ( 'NONE', *, *, #200, .F. ) ;
#7 = PRODUCT_RELATED_PRODUCT_CATEGORY ( 'part', '', ( #122 ) ) ;
#8 = VECTOR ( 'NONE', #202, 1000.000000000000000 ) ;
#9 = EDGE_LOOP ( 'NONE', ( #6, #80, #198, #203 ) ) ;
#10 = DIRECTION ( 'NONE',  ( 1.000000000000000000, -0.0000000000000000000, -0.0000000000000000000 ) ) ;
#11 = VERTEX_POINT ( 'NONE', #182 ) ;
#12 = EDGE_CURVE ( 'NONE', #90, #164, #44, .T. ) ;
#13 = ORIENTED_EDGE ( 'NONE', *, *, #180, .F. ) ;
#14 = CARTESIAN_POINT ( 'NONE',  ( -0.5499999999999983800, 0.0000000000000000000, 3.599999999999998800 ) ) ;
#15 = VERTEX_POINT ( 'NONE', #14 ) ;
#16 = CARTESIAN_POINT ( 'NONE',  ( 7.206746031746035900, 0.0000000000000000000, 0.0000000000000000000 ) ) ;
#17 = CIRCLE ( 'NONE', #88, 3.599999999999999200 ) ;
#18 = CONICAL_SURFACE ( 'NONE', #162, 2.149999999999999500, 1.469131547868511900 ) ;
#19 = CARTESIAN_POINT ( 'NONE',  ( -0.5499999999999983800, 0.0000000000000000000, 0.0000000000000000000 ) ) ;
#20 = AXIS2_PLACEMENT_3D ( 'NONE', #204, #31, #94 ) ;
#21 = CARTESIAN_POINT ( 'NONE',  ( 7.206746031746035900, 4.408728476930470200E-016, 3.599999999999999200 ) ) ;
#22 = FACE_OUTER_BOUND ( 'NONE', #179, .T. ) ;
#23 = DIRECTION ( 'NONE',  ( 1.000000000000000000, 0.0000000000000000000, 0.0000000000000000000 ) ) ;
#24 = PRESENTATION_STYLE_ASSIGNMENT (( #170 ) ) ;
#25 = EDGE_CURVE ( 'NONE', #164, #153, #238, .T. ) ;
#26 = ORIENTED_EDGE ( 'NONE', *, *, #138, .T. ) ;
#27 =( GEOMETRIC_REPRESENTATION_CONTEXT ( 3 ) GLOBAL_UNCERTAINTY_ASSIGNED_CONTEXT ( ( #84 ) ) GLOBAL_UNIT_ASSIGNED_CONTEXT ( ( #174, #82, #142 ) ) REPRESENTATION_CONTEXT ( 'NONE', 'WORKASPACE' ) );
#28 = DIRECTION ( 'NONE',  ( 0.0000000000000000000, 0.0000000000000000000, -1.000000000000000000 ) ) ;
#29 = LINE ( 'NONE', #205, #126 ) ;
#30 = ADVANCED_FACE ( 'NONE', ( #86 ), #177, .T. ) ;
#31 = DIRECTION ( 'NONE',  ( 1.000000000000000000, -0.0000000000000000000, -0.0000000000000000000 ) ) ;
#32 = DIRECTION ( 'NONE',  ( -1.000000000000000000, 0.0000000000000000000, 0.0000000000000000000 ) ) ;
#33 = EDGE_CURVE ( 'NONE', #232, #90, #136, .T. ) ;
#34 = PRESENTATION_STYLE_ASSIGNMENT (( #233 ) ) ;
#35 = CARTESIAN_POINT ( 'NONE',  ( -0.1479239146981933800, 0.0000000000000000000, 0.0000000000000000000 ) ) ;
#36 = DIRECTION ( 'NONE',  ( 1.000000000000000000, -0.0000000000000000000, -0.0000000000000000000 ) ) ;
#37 = FILL_AREA_STYLE_COLOUR ( '', #244 ) ;
#38 = DIRECTION ( 'NONE',  ( -1.000000000000000000, 0.0000000000000000000, 0.0000000000000000000 ) ) ;
#39 = CARTESIAN_POINT ( 'NONE',  ( 7.206746031746035900, 0.0000000000000000000, 0.0000000000000000000 ) ) ;
#40 = ORIENTED_EDGE ( 'NONE', *, *, #3, .F. ) ;
#41 = EDGE_CURVE ( 'NONE', #232, #168, #29, .T. ) ;
#42 =( NAMED_UNIT ( * ) SI_UNIT ( $, .STERADIAN. ) SOLID_ANGLE_UNIT ( ) );
#43 = ADVANCED_BREP_SHAPE_REPRESENTATION ( 'Z20.ER1.003.008', ( #115, #223 ), #216 ) ;
#44 = LINE ( 'NONE', #66, #181 ) ;
#45 = EDGE_CURVE ( 'NONE', #90, #11, #119, .T. ) ;
#46 = DIRECTION ( 'NONE',  ( 0.0000000000000000000, 0.0000000000000000000, -1.000000000000000000 ) ) ;
#47 = SHAPE_DEFINITION_REPRESENTATION ( #243, #43 ) ;
#48 = ORIENTED_EDGE ( 'NONE', *, *, #85, .T. ) ;
#49 = SURFACE_STYLE_FILL_AREA ( #76 ) ;
#50 = CARTESIAN_POINT ( 'NONE',  ( -0.1479239146981933800, 0.0000000000000000000, 0.0000000000000000000 ) ) ;
#51 = ORIENTED_EDGE ( 'NONE', *, *, #25, .F. ) ;
#52 = DIRECTION ( 'NONE',  ( 0.0000000000000000000, 0.0000000000000000000, -1.000000000000000000 ) ) ;
#53 = ADVANCED_FACE ( 'NONE', ( #210 ), #18, .T. ) ;
#54 = EDGE_CURVE ( 'NONE', #11, #90, #220, .T. ) ;
#55 = DIRECTION ( 'NONE',  ( 1.000000000000000000, -0.0000000000000000000, -0.0000000000000000000 ) ) ;
#56 = DIRECTION ( 'NONE',  ( -0.1014897395041336300, 1.218323440677263500E-016, -0.9948365859654454400 ) ) ;
#57 = LINE ( 'NONE', #193, #143 ) ;
#58 = DIRECTION ( 'NONE',  ( 0.0000000000000000000, 0.0000000000000000000, -1.000000000000000000 ) ) ;
#59 = ADVANCED_FACE ( 'NONE', ( #75 ), #71, .F. ) ;
#60 = CARTESIAN_POINT ( 'NONE',  ( -0.4020760853018058900, 0.0000000000000000000, -2.149999999999999000 ) ) ;
#61 =( NAMED_UNIT ( * ) PLANE_ANGLE_UNIT ( ) SI_UNIT ( $, .RADIAN. ) );
#62 = ORIENTED_EDGE ( 'NONE', *, *, #41, .T. ) ;
#63 = AXIS2_PLACEMENT_3D ( 'NONE', #201, #10, #46 ) ;
#64 = AXIS2_PLACEMENT_3D ( 'NONE', #16, #249, #227 ) ;
#65 = ORIENTED_EDGE ( 'NONE', *, *, #33, .T. ) ;
#66 = CARTESIAN_POINT ( 'NONE',  ( 0.0000000000000000000, 2.632990618166808700E-016, -2.149999999999999500 ) ) ;
#67 = CYLINDRICAL_SURFACE ( 'NONE', #73, 3.599999999999999200 ) ;
#68 = CARTESIAN_POINT ( 'NONE',  ( 0.0000000000000000000, 0.0000000000000000000, 0.0000000000000000000 ) ) ;
#69 =( GEOMETRIC_REPRESENTATION_CONTEXT ( 3 ) GLOBAL_UNCERTAINTY_ASSIGNED_CONTEXT ( ( #189 ) ) GLOBAL_UNIT_ASSIGNED_CONTEXT ( ( #190, #61, #129 ) ) REPRESENTATION_CONTEXT ( 'NONE', 'WORKASPACE' ) );
#70 = ADVANCED_FACE ( 'NONE', ( #5 ), #106, .T. ) ;
#71 = CYLINDRICAL_SURFACE ( 'NONE', #171, 2.149999999999999000 ) ;
#72 = DIRECTION ( 'NONE',  ( 1.000000000000000000, -0.0000000000000000000, -0.0000000000000000000 ) ) ;
#73 = AXIS2_PLACEMENT_3D ( 'NONE', #39, #229, #114 ) ;
#74 = LINE ( 'NONE', #21, #236 ) ;
#75 = FACE_OUTER_BOUND ( 'NONE', #103, .T. ) ;
#76 = FILL_AREA_STYLE ('',( #37 ) ) ;
#77 = CARTESIAN_POINT ( 'NONE',  ( 7.206746031746035900, 2.632990618166808200E-016, 2.149999999999999000 ) ) ;
#78 = AXIS2_PLACEMENT_3D ( 'NONE', #152, #102, #231 ) ;
#79 = CIRCLE ( 'NONE', #187, 2.149999999999999000 ) ;
#80 = ORIENTED_EDGE ( 'NONE', *, *, #3, .T. ) ;
#81 = SURFACE_STYLE_FILL_AREA ( #234 ) ;
#82 =( NAMED_UNIT ( * ) PLANE_ANGLE_UNIT ( ) SI_UNIT ( $, .RADIAN. ) );
#83 = LINE ( 'NONE', #128, #158 ) ;
#84 = UNCERTAINTY_MEASURE_WITH_UNIT (LENGTH_MEASURE( 1.000000000000000100E-005 ), #174, 'distance_accuracy_value', 'NONE');
#85 = EDGE_CURVE ( 'NONE', #232, #160, #178, .T. ) ;
#86 = FACE_OUTER_BOUND ( 'NONE', #87, .T. ) ;
#87 = EDGE_LOOP ( 'NONE', ( #141, #199, #51, #13 ) ) ;
#88 = AXIS2_PLACEMENT_3D ( 'NONE', #35, #132, #58 ) ;
#89 = VECTOR ( 'NONE', #197, 1000.000000000000000 ) ;
#90 = VERTEX_POINT ( 'NONE', #111 ) ;
#91 = DIRECTION ( 'NONE',  ( -0.1014897395041336300, 0.0000000000000000000, 0.9948365859654454400 ) ) ;
#92 = UNCERTAINTY_MEASURE_WITH_UNIT (LENGTH_MEASURE( 1.000000000000000100E-005 ), #117, 'distance_accuracy_value', 'NONE');
#93 = ORIENTED_EDGE ( 'NONE', *, *, #45, .F. ) ;
#94 = DIRECTION ( 'NONE',  ( 0.0000000000000000000, 0.0000000000000000000, -1.000000000000000000 ) ) ;
#95 = EDGE_CURVE ( 'NONE', #160, #15, #83, .T. ) ;
#96 = DIRECTION ( 'NONE',  ( -1.000000000000000000, 0.0000000000000000000, 0.0000000000000000000 ) ) ;
#97 = DIRECTION ( 'NONE',  ( 0.0000000000000000000, 0.0000000000000000000, -1.000000000000000000 ) ) ;
#98 = DIRECTION ( 'NONE',  ( 0.0000000000000000000, 0.0000000000000000000, 1.000000000000000000 ) ) ;
#99 = MECHANICAL_DESIGN_GEOMETRIC_PRESENTATION_REPRESENTATION (  '', ( #241 ), #69 ) ;
#100 = CONICAL_SURFACE ( 'NONE', #191, 3.599999999999998800, 1.469131547868512300 ) ;
#101 = ORIENTED_EDGE ( 'NONE', *, *, #54, .F. ) ;
#102 = DIRECTION ( 'NONE',  ( -1.000000000000000000, 0.0000000000000000000, 0.0000000000000000000 ) ) ;
#103 = EDGE_LOOP ( 'NONE', ( #127, #163, #147, #224 ) ) ;
#104 = EDGE_CURVE ( 'NONE', #160, #232, #79, .T. ) ;
#105 = CIRCLE ( 'NONE', #108, 3.599999999999998800 ) ;
#106 = CONICAL_SURFACE ( 'NONE', #211, 2.149999999999999500, 1.469131547868511900 ) ;
#107 = ORIENTED_EDGE ( 'NONE', *, *, #95, .T. ) ;
#108 = AXIS2_PLACEMENT_3D ( 'NONE', #19, #254, #1 ) ;
#109 = ADVANCED_FACE ( 'NONE', ( #22 ), #118, .F. ) ;
#110 = CARTESIAN_POINT ( 'NONE',  ( 7.206746031746035900, 0.0000000000000000000, 0.0000000000000000000 ) ) ;
#111 = CARTESIAN_POINT ( 'NONE',  ( 0.0000000000000000000, 0.0000000000000000000, -2.149999999999999500 ) ) ;
#112 = PRESENTATION_LAYER_ASSIGNMENT (  '', '', ( #241 ) ) ;
#113 = CARTESIAN_POINT ( 'NONE',  ( -0.1479239146981933800, 0.0000000000000000000, -3.599999999999999200 ) ) ;
#114 = DIRECTION ( 'NONE',  ( 0.0000000000000000000, 0.0000000000000000000, -1.000000000000000000 ) ) ;
#115 = MANIFOLD_SOLID_BREP ( 'Rotation1', #196 ) ;
#116 = ORIENTED_EDGE ( 'NONE', *, *, #12, .T. ) ;
#117 =( LENGTH_UNIT ( ) NAMED_UNIT ( * ) SI_UNIT ( .MILLI., .METRE. ) );
#118 = CYLINDRICAL_SURFACE ( 'NONE', #64, 2.149999999999999000 ) ;
#119 = CIRCLE ( 'NONE', #247, 2.149999999999999500 ) ;
#120 = ORIENTED_EDGE ( 'NONE', *, *, #237, .F. ) ;
#121 = AXIS2_PLACEMENT_3D ( 'NONE', #50, #55, #28 ) ;
#122 = PRODUCT ( 'Z20.ER1.003.008', 'Z20.ER1.003.008', '', ( #157 ) ) ;
#123 = CONICAL_SURFACE ( 'NONE', #78, 3.599999999999998800, 1.469131547868512300 ) ;
#124 = EDGE_LOOP ( 'NONE', ( #253, #101, #26, #173 ) ) ;
#125 = ADVANCED_FACE ( 'NONE', ( #131 ), #67, .T. ) ;
#126 = VECTOR ( 'NONE', #56, 1000.000000000000000 ) ;
#127 = ORIENTED_EDGE ( 'NONE', *, *, #104, .F. ) ;
#128 = CARTESIAN_POINT ( 'NONE',  ( -0.5499999999999983800, 0.0000000000000000000, 3.599999999999998800 ) ) ;
#129 =( NAMED_UNIT ( * ) SI_UNIT ( $, .STERADIAN. ) SOLID_ANGLE_UNIT ( ) );
#130 = FACE_OUTER_BOUND ( 'NONE', #144, .T. ) ;
#131 = FACE_OUTER_BOUND ( 'NONE', #9, .T. ) ;
#132 = DIRECTION ( 'NONE',  ( 1.000000000000000000, -0.0000000000000000000, -0.0000000000000000000 ) ) ;
#133 = CARTESIAN_POINT ( 'NONE',  ( 0.0000000000000000000, 0.0000000000000000000, 2.149999999999999500 ) ) ;
#134 = PRODUCT_DEFINITION ( 'UNKNOWN', '', #230, #239 ) ;
#135 = DIRECTION ( 'NONE',  ( 1.000000000000000000, -0.0000000000000000000, -0.0000000000000000000 ) ) ;
#136 = LINE ( 'NONE', #150, #8 ) ;
#137 = EDGE_LOOP ( 'NONE', ( #93, #116, #194, #218 ) ) ;
#138 = EDGE_CURVE ( 'NONE', #11, #153, #228, .T. ) ;
#139 = COLOUR_RGB ( '',0.7529411764705882200, 0.7529411764705882200, 0.7529411764705882200 ) ;
#140 = APPLICATION_CONTEXT ( 'automotive_design' ) ;
#141 = ORIENTED_EDGE ( 'NONE', *, *, #226, .T. ) ;
#142 =( NAMED_UNIT ( * ) SI_UNIT ( $, .STERADIAN. ) SOLID_ANGLE_UNIT ( ) );
#143 = VECTOR ( 'NONE', #192, 1000.000000000000000 ) ;
#144 = EDGE_LOOP ( 'NONE', ( #240, #62, #40, #245 ) ) ;
#145 = DIRECTION ( 'NONE',  ( -0.1014897395041340800, 1.218323440677263200E-016, -0.9948365859654453300 ) ) ;
#146 = LINE ( 'NONE', #77, #89 ) ;
#147 = ORIENTED_EDGE ( 'NONE', *, *, #54, .T. ) ;
#148 = DIRECTION ( 'NONE',  ( 0.0000000000000000000, 0.0000000000000000000, 1.000000000000000000 ) ) ;
#149 = CARTESIAN_POINT ( 'NONE',  ( 0.0000000000000000000, 0.0000000000000000000, 0.0000000000000000000 ) ) ;
#150 = CARTESIAN_POINT ( 'NONE',  ( 7.206746031746035900, 0.0000000000000000000, -2.149999999999999000 ) ) ;
#151 = CARTESIAN_POINT ( 'NONE',  ( -0.4020760853018058900, 0.0000000000000000000, 0.0000000000000000000 ) ) ;
#152 = CARTESIAN_POINT ( 'NONE',  ( -0.5499999999999983800, 0.0000000000000000000, 0.0000000000000000000 ) ) ;
#153 = VERTEX_POINT ( 'NONE', #208 ) ;
#154 = CARTESIAN_POINT ( 'NONE',  ( -0.5499999999999983800, 0.0000000000000000000, 0.0000000000000000000 ) ) ;
#155 = PRESENTATION_LAYER_ASSIGNMENT (  '', '', ( #183 ) ) ;
#156 = APPLICATION_CONTEXT ( 'automotive_design' ) ;
#157 = PRODUCT_CONTEXT ( 'NONE', #156, 'mechanical' ) ;
#158 = VECTOR ( 'NONE', #91, 1000.000000000000000 ) ;
#159 = CIRCLE ( 'NONE', #63, 3.599999999999998800 ) ;
#160 = VERTEX_POINT ( 'NONE', #209 ) ;
#161 = DIRECTION ( 'NONE',  ( 1.000000000000000000, -0.0000000000000000000, -0.0000000000000000000 ) ) ;
#162 = AXIS2_PLACEMENT_3D ( 'NONE', #149, #32, #165 ) ;
#163 = ORIENTED_EDGE ( 'NONE', *, *, #237, .T. ) ;
#164 = VERTEX_POINT ( 'NONE', #113 ) ;
#165 = DIRECTION ( 'NONE',  ( 0.0000000000000000000, 0.0000000000000000000, 1.000000000000000000 ) ) ;
#166 = DIRECTION ( 'NONE',  ( 1.000000000000000000, -0.0000000000000000000, -0.0000000000000000000 ) ) ;
#167 = DIRECTION ( 'NONE',  ( -0.1014897395041340800, 0.0000000000000000000, 0.9948365859654453300 ) ) ;
#168 = VERTEX_POINT ( 'NONE', #169 ) ;
#169 = CARTESIAN_POINT ( 'NONE',  ( -0.5499999999999983800, 4.408728476930470200E-016, -3.599999999999998800 ) ) ;
#170 = SURFACE_STYLE_USAGE ( .BOTH. , #252 ) ;
#171 = AXIS2_PLACEMENT_3D ( 'NONE', #110, #161, #52 ) ;
#172 = APPLICATION_PROTOCOL_DEFINITION ( 'draft international standard', 'automotive_design', 1998, #140 ) ;
#173 = ORIENTED_EDGE ( 'NONE', *, *, #219, .T. ) ;
#174 =( LENGTH_UNIT ( ) NAMED_UNIT ( * ) SI_UNIT ( .MILLI., .METRE. ) );
#175 = AXIS2_PLACEMENT_3D ( 'NONE', #185, #166, #248 ) ;
#176 = APPLICATION_PROTOCOL_DEFINITION ( 'draft international standard', 'automotive_design', 1998, #156 ) ;
#177 = CYLINDRICAL_SURFACE ( 'NONE', #20, 3.599999999999999200 ) ;
#178 = CIRCLE ( 'NONE', #175, 2.149999999999999000 ) ;
#179 = EDGE_LOOP ( 'NONE', ( #120, #214, #65, #188 ) ) ;
#180 = EDGE_CURVE ( 'NONE', #168, #164, #57, .T. ) ;
#181 = VECTOR ( 'NONE', #145, 1000.000000000000200 ) ;
#182 = CARTESIAN_POINT ( 'NONE',  ( 0.0000000000000000000, 2.632990618166808700E-016, 2.149999999999999500 ) ) ;
#183 = STYLED_ITEM ( 'NONE', ( #34 ), #43 ) ;
#184 = ORIENTED_EDGE ( 'NONE', *, *, #226, .F. ) ;
#185 = CARTESIAN_POINT ( 'NONE',  ( -0.4020760853018058900, 0.0000000000000000000, 0.0000000000000000000 ) ) ;
#186 = CARTESIAN_POINT ( 'NONE',  ( 0.0000000000000000000, 0.0000000000000000000, 0.0000000000000000000 ) ) ;
#187 = AXIS2_PLACEMENT_3D ( 'NONE', #151, #135, #97 ) ;
#188 = ORIENTED_EDGE ( 'NONE', *, *, #45, .T. ) ;
#189 = UNCERTAINTY_MEASURE_WITH_UNIT (LENGTH_MEASURE( 1.000000000000000100E-005 ), #190, 'distance_accuracy_value', 'NONE');
#190 =( LENGTH_UNIT ( ) NAMED_UNIT ( * ) SI_UNIT ( .MILLI., .METRE. ) );
#191 = AXIS2_PLACEMENT_3D ( 'NONE', #154, #38, #98 ) ;
#192 = DIRECTION ( 'NONE',  ( 1.000000000000000000, -0.0000000000000000000, -0.0000000000000000000 ) ) ;
#193 = CARTESIAN_POINT ( 'NONE',  ( 7.206746031746035900, 0.0000000000000000000, -3.599999999999999200 ) ) ;
#194 = ORIENTED_EDGE ( 'NONE', *, *, #25, .T. ) ;
#195 = AXIS2_PLACEMENT_3D ( 'NONE', #242, #221, #246 ) ;
#196 = CLOSED_SHELL ( 'NONE', ( #70, #30, #225, #59, #109, #207, #125, #53 ) ) ;
#197 = DIRECTION ( 'NONE',  ( 1.000000000000000000, -0.0000000000000000000, -0.0000000000000000000 ) ) ;
#198 = ORIENTED_EDGE ( 'NONE', *, *, #180, .T. ) ;
#199 = ORIENTED_EDGE ( 'NONE', *, *, #200, .T. ) ;
#200 = EDGE_CURVE ( 'NONE', #15, #153, #74, .T. ) ;
#201 = CARTESIAN_POINT ( 'NONE',  ( -0.5499999999999983800, 0.0000000000000000000, 0.0000000000000000000 ) ) ;
#202 = DIRECTION ( 'NONE',  ( 1.000000000000000000, -0.0000000000000000000, -0.0000000000000000000 ) ) ;
#203 = ORIENTED_EDGE ( 'NONE', *, *, #219, .F. ) ;
#204 = CARTESIAN_POINT ( 'NONE',  ( 7.206746031746035900, 0.0000000000000000000, 0.0000000000000000000 ) ) ;
#205 = CARTESIAN_POINT ( 'NONE',  ( -0.5499999999999983800, 4.408728476930470200E-016, -3.599999999999998800 ) ) ;
#206 = ORIENTED_EDGE ( 'NONE', *, *, #41, .F. ) ;
#207 = ADVANCED_FACE ( 'NONE', ( #2 ), #100, .F. ) ;
#208 = CARTESIAN_POINT ( 'NONE',  ( -0.1479239146981933800, 4.408728476930470200E-016, 3.599999999999999200 ) ) ;
#209 = CARTESIAN_POINT ( 'NONE',  ( -0.4020760853018058900, 2.632990618166808200E-016, 2.149999999999999000 ) ) ;
#210 = FACE_OUTER_BOUND ( 'NONE', #124, .T. ) ;
#211 = AXIS2_PLACEMENT_3D ( 'NONE', #186, #96, #148 ) ;
#212 = SURFACE_SIDE_STYLE ('',( #81 ) ) ;
#213 = EDGE_LOOP ( 'NONE', ( #206, #48, #107, #184 ) ) ;
#214 = ORIENTED_EDGE ( 'NONE', *, *, #85, .F. ) ;
#215 =( NAMED_UNIT ( * ) PLANE_ANGLE_UNIT ( ) SI_UNIT ( $, .RADIAN. ) );
#216 =( GEOMETRIC_REPRESENTATION_CONTEXT ( 3 ) GLOBAL_UNCERTAINTY_ASSIGNED_CONTEXT ( ( #92 ) ) GLOBAL_UNIT_ASSIGNED_CONTEXT ( ( #117, #215, #42 ) ) REPRESENTATION_CONTEXT ( 'NONE', 'WORKASPACE' ) );
#217 = MECHANICAL_DESIGN_GEOMETRIC_PRESENTATION_REPRESENTATION (  '', ( #183 ), #27 ) ;
#218 = ORIENTED_EDGE ( 'NONE', *, *, #138, .F. ) ;
#219 = EDGE_CURVE ( 'NONE', #153, #164, #17, .T. ) ;
#220 = CIRCLE ( 'NONE', #195, 2.149999999999999500 ) ;
#221 = DIRECTION ( 'NONE',  ( 1.000000000000000000, -0.0000000000000000000, -0.0000000000000000000 ) ) ;
#222 = DIRECTION ( 'NONE',  ( 0.0000000000000000000, 0.0000000000000000000, -1.000000000000000000 ) ) ;
#223 = AXIS2_PLACEMENT_3D ( 'NONE', #235, #4, #23 ) ;
#224 = ORIENTED_EDGE ( 'NONE', *, *, #33, .F. ) ;
#225 = ADVANCED_FACE ( 'NONE', ( #130 ), #123, .F. ) ;
#226 = EDGE_CURVE ( 'NONE', #168, #15, #105, .T. ) ;
#227 = DIRECTION ( 'NONE',  ( 0.0000000000000000000, 0.0000000000000000000, -1.000000000000000000 ) ) ;
#228 = LINE ( 'NONE', #133, #251 ) ;
#229 = DIRECTION ( 'NONE',  ( 1.000000000000000000, -0.0000000000000000000, -0.0000000000000000000 ) ) ;
#230 = PRODUCT_DEFINITION_FORMATION_WITH_SPECIFIED_SOURCE ( 'ANY', '', #122, .NOT_KNOWN. ) ;
#231 = DIRECTION ( 'NONE',  ( 0.0000000000000000000, 0.0000000000000000000, 1.000000000000000000 ) ) ;
#232 = VERTEX_POINT ( 'NONE', #60 ) ;
#233 = SURFACE_STYLE_USAGE ( .BOTH. , #212 ) ;
#234 = FILL_AREA_STYLE ('',( #250 ) ) ;
#235 = CARTESIAN_POINT ( 'NONE',  ( 0.0000000000000000000, 0.0000000000000000000, 0.0000000000000000000 ) ) ;
#236 = VECTOR ( 'NONE', #36, 1000.000000000000000 ) ;
#237 = EDGE_CURVE ( 'NONE', #160, #11, #146, .T. ) ;
#238 = CIRCLE ( 'NONE', #121, 3.599999999999999200 ) ;
#239 = PRODUCT_DEFINITION_CONTEXT ( 'detailed design', #140, 'design' ) ;
#240 = ORIENTED_EDGE ( 'NONE', *, *, #104, .T. ) ;
#241 = STYLED_ITEM ( 'NONE', ( #24 ), #115 ) ;
#242 = CARTESIAN_POINT ( 'NONE',  ( 0.0000000000000000000, 0.0000000000000000000, 0.0000000000000000000 ) ) ;
#243 = PRODUCT_DEFINITION_SHAPE ( 'NONE', 'NONE',  #134 ) ;
#244 = COLOUR_RGB ( '',0.7529411764705882200, 0.7529411764705882200, 0.7529411764705882200 ) ;
#245 = ORIENTED_EDGE ( 'NONE', *, *, #95, .F. ) ;
#246 = DIRECTION ( 'NONE',  ( 0.0000000000000000000, 0.0000000000000000000, -1.000000000000000000 ) ) ;
#247 = AXIS2_PLACEMENT_3D ( 'NONE', #68, #72, #222 ) ;
#248 = DIRECTION ( 'NONE',  ( 0.0000000000000000000, 0.0000000000000000000, -1.000000000000000000 ) ) ;
#249 = DIRECTION ( 'NONE',  ( 1.000000000000000000, -0.0000000000000000000, -0.0000000000000000000 ) ) ;
#250 = FILL_AREA_STYLE_COLOUR ( '', #139 ) ;
#251 = VECTOR ( 'NONE', #167, 1000.000000000000200 ) ;
#252 = SURFACE_SIDE_STYLE ('',( #49 ) ) ;
#253 = ORIENTED_EDGE ( 'NONE', *, *, #12, .F. ) ;
#254 = DIRECTION ( 'NONE',  ( 1.000000000000000000, -0.0000000000000000000, -0.0000000000000000000 ) ) ;
ENDSEC;
END-ISO-10303-21;
