ISO-10303-21;
HEADER;
FILE_DESCRIPTION (( 'STEP AP214' ),
    '1' );
FILE_NAME ('HS0.U18.K01.080.STEP',
    '2020-10-22T14:02:55',
    ( '' ),
    ( '' ),
    'SwSTEP 2.0',
    'SolidWorks 2017',
    '' );
FILE_SCHEMA (( 'AUTOMOTIVE_DESIGN' ));
ENDSEC;

DATA;
#1 = DIRECTION ( 'NONE',  ( 0.0000000000000000000, 0.0000000000000000000, 1.000000000000000000 ) ) ;
#2 =( LENGTH_UNIT ( ) NAMED_UNIT ( * ) SI_UNIT ( .MILLI., .METRE. ) );
#3 = AXIS2_PLACEMENT_3D ( 'NONE', #130, #292, #111 ) ;
#4 = SHAPE_DEFINITION_REPRESENTATION ( #205, #278 ) ;
#5 = SURFACE_STYLE_USAGE ( .BOTH. , #170 ) ;
#6 = EDGE_LOOP ( 'NONE', ( #87 ) ) ;
#7 = SURFACE_STYLE_FILL_AREA ( #88 ) ;
#8 = FACE_BOUND ( 'NONE', #318, .T. ) ;
#9 = STYLED_ITEM ( 'NONE', ( #241 ), #25 ) ;
#10 = ORIENTED_EDGE ( 'NONE', *, *, #337, .T. ) ;
#11 = FACE_OUTER_BOUND ( 'NONE', #347, .T. ) ;
#12 = AXIS2_PLACEMENT_3D ( 'NONE', #338, #361, #364 ) ;
#13 = DIRECTION ( 'NONE',  ( 1.000000000000000000, 0.0000000000000000000, 0.0000000000000000000 ) ) ;
#14 = EDGE_LOOP ( 'NONE', ( #47 ) ) ;
#15 = CARTESIAN_POINT ( 'NONE',  ( -90.00000000000000000, 0.0000000000000000000, 2.500000000000000000 ) ) ;
#16 = DIRECTION ( 'NONE',  ( 0.0000000000000000000, 0.0000000000000000000, -1.000000000000000000 ) ) ;
#17 = DIRECTION ( 'NONE',  ( 0.0000000000000000000, 0.0000000000000000000, 1.000000000000000000 ) ) ;
#18 = CONICAL_SURFACE ( 'NONE', #259, 3.943582222752405100, 0.6981317007977245700 ) ;
#19 = VERTEX_POINT ( 'NONE', #157 ) ;
#20 = CYLINDRICAL_SURFACE ( 'NONE', #56, 4.999999999999999100 ) ;
#21 =( NAMED_UNIT ( * ) PLANE_ANGLE_UNIT ( ) SI_UNIT ( $, .RADIAN. ) );
#22 = STYLED_ITEM ( 'NONE', ( #84 ), #121 ) ;
#23 = CARTESIAN_POINT ( 'NONE',  ( -21.74455826141793200, 0.0000000000000000000, 0.0000000000000000000 ) ) ;
#24 = DIRECTION ( 'NONE',  ( 0.0000000000000000000, 0.0000000000000000000, 1.000000000000000000 ) ) ;
#25 = ADVANCED_FACE ( 'NONE', ( #139, #293 ), #20, .T. ) ;
#26 = DIRECTION ( 'NONE',  ( 0.0000000000000000000, 0.0000000000000000000, 1.000000000000000000 ) ) ;
#27 = AXIS2_PLACEMENT_3D ( 'NONE', #59, #315, #198 ) ;
#28 = CARTESIAN_POINT ( 'NONE',  ( -83.37051663148335500, 0.0000000000000000000, 0.0000000000000000000 ) ) ;
#29 = CLOSED_SHELL ( 'NONE', ( #176, #90, #146, #256, #233, #46, #314, #179, #351, #322, #223, #339, #25, #236, #266 ) ) ;
#30 = CYLINDRICAL_SURFACE ( 'NONE', #128, 1.500000000000000000 ) ;
#31 =( NAMED_UNIT ( * ) SI_UNIT ( $, .STERADIAN. ) SOLID_ANGLE_UNIT ( ) );
#32 = EDGE_CURVE ( 'NONE', #362, #362, #251, .T. ) ;
#33 = VERTEX_POINT ( 'NONE', #165 ) ;
#34 = EDGE_LOOP ( 'NONE', ( #255 ) ) ;
#35 = CARTESIAN_POINT ( 'NONE',  ( -79.99999999999998600, 0.0000000000000000000, 0.0000000000000000000 ) ) ;
#36 = COLOUR_RGB ( '',0.7529411764705882200, 0.7529411764705882200, 0.7529411764705882200 ) ;
#37 = DIRECTION ( 'NONE',  ( 0.0000000000000000000, 0.0000000000000000000, 1.000000000000000000 ) ) ;
#38 = ORIENTED_EDGE ( 'NONE', *, *, #218, .T. ) ;
#39 = DIRECTION ( 'NONE',  ( -1.000000000000000000, -0.0000000000000000000, -0.0000000000000000000 ) ) ;
#40 = VERTEX_POINT ( 'NONE', #186 ) ;
#41 = FACE_OUTER_BOUND ( 'NONE', #14, .T. ) ;
#42 = CARTESIAN_POINT ( 'NONE',  ( -89.25000000000002800, 0.0000000000000000000, 4.999999999999999100 ) ) ;
#43 = AXIS2_PLACEMENT_3D ( 'NONE', #28, #356, #306 ) ;
#44 = DIRECTION ( 'NONE',  ( -1.000000000000000000, 0.0000000000000000000, -0.0000000000000000000 ) ) ;
#45 = CARTESIAN_POINT ( 'NONE',  ( -88.26794919243113200, 0.0000000000000000000, 0.0000000000000000000 ) ) ;
#46 = ADVANCED_FACE ( 'NONE', ( #302, #326 ), #262, .T. ) ;
#47 = ORIENTED_EDGE ( 'NONE', *, *, #32, .F. ) ;
#48 = ORIENTED_EDGE ( 'NONE', *, *, #175, .F. ) ;
#49 = ORIENTED_EDGE ( 'NONE', *, *, #235, .F. ) ;
#50 =( NAMED_UNIT ( * ) SI_UNIT ( $, .STERADIAN. ) SOLID_ANGLE_UNIT ( ) );
#51 = AXIS2_PLACEMENT_3D ( 'NONE', #71, #101, #279 ) ;
#52 =( LENGTH_UNIT ( ) NAMED_UNIT ( * ) SI_UNIT ( .MILLI., .METRE. ) );
#53 = TOROIDAL_SURFACE ( 'NONE', #313, 8.799999999999988300, 0.2000000000000022600 ) ;
#54 = CARTESIAN_POINT ( 'NONE',  ( -1.991858428704203200, 0.0000000000000000000, 0.0000000000000000000 ) ) ;
#55 = VERTEX_POINT ( 'NONE', #42 ) ;
#56 = AXIS2_PLACEMENT_3D ( 'NONE', #226, #172, #26 ) ;
#57 = SURFACE_SIDE_STYLE ('',( #253 ) ) ;
#58 = ORIENTED_EDGE ( 'NONE', *, *, #328, .F. ) ;
#59 = CARTESIAN_POINT ( 'NONE',  ( -21.74455826141793200, 0.0000000000000000000, 0.0000000000000000000 ) ) ;
#60 = ORIENTED_EDGE ( 'NONE', *, *, #95, .T. ) ;
#61 = FACE_OUTER_BOUND ( 'NONE', #280, .T. ) ;
#62 = AXIS2_PLACEMENT_3D ( 'NONE', #153, #184, #122 ) ;
#63 = CIRCLE ( 'NONE', #295, 2.649999999999999900 ) ;
#64 = FACE_BOUND ( 'NONE', #324, .T. ) ;
#65 =( LENGTH_UNIT ( ) NAMED_UNIT ( * ) SI_UNIT ( .MILLI., .METRE. ) );
#66 = EDGE_LOOP ( 'NONE', ( #38 ) ) ;
#67 = DIRECTION ( 'NONE',  ( 0.0000000000000000000, 0.0000000000000000000, -1.000000000000000000 ) ) ;
#68 = EDGE_LOOP ( 'NONE', ( #211 ) ) ;
#69 = FACE_BOUND ( 'NONE', #6, .T. ) ;
#70 = AXIS2_PLACEMENT_3D ( 'NONE', #45, #220, #247 ) ;
#71 = CARTESIAN_POINT ( 'NONE',  ( 0.0000000000000000000, 0.0000000000000000000, 0.0000000000000000000 ) ) ;
#72 = DIRECTION ( 'NONE',  ( 0.0000000000000000000, 0.0000000000000000000, 1.000000000000000000 ) ) ;
#73 = CARTESIAN_POINT ( 'NONE',  ( -79.79999999999999700, 0.0000000000000000000, 8.999999999999987600 ) ) ;
#74 = DIRECTION ( 'NONE',  ( 0.0000000000000000000, 0.0000000000000000000, 1.000000000000000000 ) ) ;
#75 = SURFACE_STYLE_FILL_AREA ( #341 ) ;
#76 = MECHANICAL_DESIGN_GEOMETRIC_PRESENTATION_REPRESENTATION (  '', ( #9 ), #368 ) ;
#77 = CARTESIAN_POINT ( 'NONE',  ( -82.11152695016812700, 0.0000000000000000000, 0.0000000000000000000 ) ) ;
#78 = CARTESIAN_POINT ( 'NONE',  ( -82.11152695016812700, 0.0000000000000000000, 3.943582222752405100 ) ) ;
#79 = ORIENTED_EDGE ( 'NONE', *, *, #193, .F. ) ;
#80 = EDGE_LOOP ( 'NONE', ( #93 ) ) ;
#81 = CIRCLE ( 'NONE', #348, 4.999999999999999100 ) ;
#82 = PRODUCT_RELATED_PRODUCT_CATEGORY ( 'part', '', ( #288 ) ) ;
#83 = EDGE_CURVE ( 'NONE', #152, #152, #365, .T. ) ;
#84 = PRESENTATION_STYLE_ASSIGNMENT (( #299 ) ) ;
#85 = FILL_AREA_STYLE_COLOUR ( '', #36 ) ;
#86 = SURFACE_STYLE_USAGE ( .BOTH. , #168 ) ;
#87 = ORIENTED_EDGE ( 'NONE', *, *, #360, .T. ) ;
#88 = FILL_AREA_STYLE ('',( #141 ) ) ;
#89 = PRODUCT_DEFINITION ( 'UNKNOWN', '', #345, #291 ) ;
#90 = ADVANCED_FACE ( 'NONE', ( #319, #11 ), #30, .F. ) ;
#91 = CONICAL_SURFACE ( 'NONE', #254, 4.999999999999999100, 0.7853981633974657100 ) ;
#92 = AXIS2_PLACEMENT_3D ( 'NONE', #191, #104, #159 ) ;
#93 = ORIENTED_EDGE ( 'NONE', *, *, #218, .F. ) ;
#94 = UNCERTAINTY_MEASURE_WITH_UNIT (LENGTH_MEASURE( 1.000000000000000100E-005 ), #52, 'distance_accuracy_value', 'NONE');
#95 = EDGE_CURVE ( 'NONE', #206, #206, #174, .T. ) ;
#96 = CARTESIAN_POINT ( 'NONE',  ( -81.85441190629352100, 0.0000000000000000000, 0.0000000000000000000 ) ) ;
#97 = COLOUR_RGB ( '',0.7529411764705882200, 0.7529411764705882200, 0.7529411764705882200 ) ;
#98 = DIRECTION ( 'NONE',  ( 0.0000000000000000000, 0.0000000000000000000, 1.000000000000000000 ) ) ;
#99 = FACE_BOUND ( 'NONE', #68, .T. ) ;
#100 = DIRECTION ( 'NONE',  ( 0.0000000000000000000, 0.0000000000000000000, 1.000000000000000000 ) ) ;
#101 = DIRECTION ( 'NONE',  ( -1.000000000000000000, -0.0000000000000000000, -0.0000000000000000000 ) ) ;
#102 = FACE_BOUND ( 'NONE', #238, .T. ) ;
#103 = VERTEX_POINT ( 'NONE', #15 ) ;
#104 = DIRECTION ( 'NONE',  ( -1.000000000000000000, -0.0000000000000000000, -0.0000000000000000000 ) ) ;
#105 = AXIS2_PLACEMENT_3D ( 'NONE', #106, #285, #248 ) ;
#106 = CARTESIAN_POINT ( 'NONE',  ( -81.85441190629352100, 0.0000000000000000000, 0.0000000000000000000 ) ) ;
#107 = EDGE_LOOP ( 'NONE', ( #244 ) ) ;
#108 = CIRCLE ( 'NONE', #117, 1.500000000000000000 ) ;
#109 = FACE_BOUND ( 'NONE', #305, .T. ) ;
#110 = ORIENTED_EDGE ( 'NONE', *, *, #32, .T. ) ;
#111 = DIRECTION ( 'NONE',  ( 1.000000000000000000, 0.0000000000000000000, 0.0000000000000000000 ) ) ;
#112 = PRESENTATION_LAYER_ASSIGNMENT (  '', '', ( #9 ) ) ;
#113 = FACE_OUTER_BOUND ( 'NONE', #107, .T. ) ;
#114 =( NAMED_UNIT ( * ) SI_UNIT ( $, .STERADIAN. ) SOLID_ANGLE_UNIT ( ) );
#115 = CARTESIAN_POINT ( 'NONE',  ( -0.1999999999999987900, 0.0000000000000000000, 0.0000000000000000000 ) ) ;
#116 = DIRECTION ( 'NONE',  ( 1.000000000000000000, 0.0000000000000000000, 0.0000000000000000000 ) ) ;
#117 = AXIS2_PLACEMENT_3D ( 'NONE', #357, #245, #100 ) ;
#118 = ORIENTED_EDGE ( 'NONE', *, *, #175, .T. ) ;
#119 = EDGE_LOOP ( 'NONE', ( #284 ) ) ;
#120 = MECHANICAL_DESIGN_GEOMETRIC_PRESENTATION_REPRESENTATION (  '', ( #142 ), #158 ) ;
#121 = MANIFOLD_SOLID_BREP ( 'Rotation1', #29 ) ;
#122 = DIRECTION ( 'NONE',  ( 0.0000000000000000000, 0.0000000000000000000, 1.000000000000000000 ) ) ;
#123 = DIRECTION ( 'NONE',  ( 0.0000000000000000000, 0.0000000000000000000, 1.000000000000000000 ) ) ;
#124 = ORIENTED_EDGE ( 'NONE', *, *, #148, .F. ) ;
#125 = DIRECTION ( 'NONE',  ( -1.000000000000000000, -0.0000000000000000000, -0.0000000000000000000 ) ) ;
#126 = ORIENTED_EDGE ( 'NONE', *, *, #337, .F. ) ;
#127 = EDGE_LOOP ( 'NONE', ( #110 ) ) ;
#128 = AXIS2_PLACEMENT_3D ( 'NONE', #23, #297, #261 ) ;
#129 = DIRECTION ( 'NONE',  ( -1.000000000000000000, -0.0000000000000000000, -0.0000000000000000000 ) ) ;
#130 = CARTESIAN_POINT ( 'NONE',  ( 0.0000000000000000000, 0.0000000000000000000, 0.0000000000000000000 ) ) ;
#131 = DIRECTION ( 'NONE',  ( -0.0000000000000000000, 0.0000000000000000000, 1.000000000000000000 ) ) ;
#132 = VERTEX_POINT ( 'NONE', #309 ) ;
#133 = FACE_BOUND ( 'NONE', #192, .T. ) ;
#134 = AXIS2_PLACEMENT_3D ( 'NONE', #169, #171, #1 ) ;
#135 = DIRECTION ( 'NONE',  ( -1.000000000000000000, -0.0000000000000000000, -0.0000000000000000000 ) ) ;
#136 = EDGE_LOOP ( 'NONE', ( #204 ) ) ;
#137 = AXIS2_PLACEMENT_3D ( 'NONE', #115, #143, #200 ) ;
#138 = ORIENTED_EDGE ( 'NONE', *, *, #95, .F. ) ;
#139 = FACE_OUTER_BOUND ( 'NONE', #80, .T. ) ;
#140 = FACE_OUTER_BOUND ( 'NONE', #329, .T. ) ;
#141 = FILL_AREA_STYLE_COLOUR ( '', #97 ) ;
#142 = STYLED_ITEM ( 'NONE', ( #287 ), #278 ) ;
#143 = DIRECTION ( 'NONE',  ( -1.000000000000000000, -0.0000000000000000000, -0.0000000000000000000 ) ) ;
#144 = CONICAL_SURFACE ( 'NONE', #213, 1.500000000000000000, 0.5235987755983001500 ) ;
#145 = EDGE_LOOP ( 'NONE', ( #358 ) ) ;
#146 = ADVANCED_FACE ( 'NONE', ( #269, #109 ), #144, .F. ) ;
#147 = FACE_OUTER_BOUND ( 'NONE', #127, .T. ) ;
#148 = EDGE_CURVE ( 'NONE', #19, #19, #369, .T. ) ;
#149 = COLOUR_RGB ( '',0.7529411764705882200, 0.7529411764705882200, 0.7529411764705882200 ) ;
#150 = EDGE_CURVE ( 'NONE', #214, #214, #335, .T. ) ;
#151 = ORIENTED_EDGE ( 'NONE', *, *, #167, .T. ) ;
#152 = VERTEX_POINT ( 'NONE', #366 ) ;
#153 = CARTESIAN_POINT ( 'NONE',  ( -79.79999999999999700, 0.0000000000000000000, 0.0000000000000000000 ) ) ;
#154 = TOROIDAL_SURFACE ( 'NONE', #92, 4.249999999999999100, 0.4000000000000058000 ) ;
#155 = AXIS2_PLACEMENT_3D ( 'NONE', #249, #281, #74 ) ;
#156 = DIRECTION ( 'NONE',  ( 0.0000000000000000000, 0.0000000000000000000, 1.000000000000000000 ) ) ;
#157 = CARTESIAN_POINT ( 'NONE',  ( -80.40000000000000600, 0.0000000000000000000, 3.849999999999993400 ) ) ;
#158 =( GEOMETRIC_REPRESENTATION_CONTEXT ( 3 ) GLOBAL_UNCERTAINTY_ASSIGNED_CONTEXT ( ( #231 ) ) GLOBAL_UNIT_ASSIGNED_CONTEXT ( ( #2, #260, #31 ) ) REPRESENTATION_CONTEXT ( 'NONE', 'WORKASPACE' ) );
#159 = DIRECTION ( 'NONE',  ( 0.0000000000000000000, 0.0000000000000000000, 1.000000000000000000 ) ) ;
#160 = EDGE_LOOP ( 'NONE', ( #118 ) ) ;
#161 = FACE_OUTER_BOUND ( 'NONE', #119, .T. ) ;
#162 = CARTESIAN_POINT ( 'NONE',  ( -81.85441190629352100, 0.0000000000000000000, 3.849999999999999200 ) ) ;
#163 = CIRCLE ( 'NONE', #51, 8.799999999999998900 ) ;
#164 = FILL_AREA_STYLE_COLOUR ( '', #149 ) ;
#165 = CARTESIAN_POINT ( 'NONE',  ( 0.0000000000000000000, 0.0000000000000000000, 2.649999999999999900 ) ) ;
#166 = ORIENTED_EDGE ( 'NONE', *, *, #237, .T. ) ;
#167 = EDGE_CURVE ( 'NONE', #40, #40, #108, .T. ) ;
#168 = SURFACE_SIDE_STYLE ('',( #75 ) ) ;
#169 = CARTESIAN_POINT ( 'NONE',  ( -80.00000000000000000, 0.0000000000000000000, 0.0000000000000000000 ) ) ;
#170 = SURFACE_SIDE_STYLE ('',( #7 ) ) ;
#171 = DIRECTION ( 'NONE',  ( -1.000000000000000000, -0.0000000000000000000, -0.0000000000000000000 ) ) ;
#172 = DIRECTION ( 'NONE',  ( -1.000000000000000000, -0.0000000000000000000, -0.0000000000000000000 ) ) ;
#173 = TOROIDAL_SURFACE ( 'NONE', #199, 8.799999999999998900, 0.2000000000000002600 ) ;
#174 = CIRCLE ( 'NONE', #180, 4.250000000000000000 ) ;
#175 = EDGE_CURVE ( 'NONE', #298, #298, #230, .T. ) ;
#176 = ADVANCED_FACE ( 'NONE', ( #99, #232 ), #286, .F. ) ;
#177 = DIRECTION ( 'NONE',  ( -1.000000000000000000, -0.0000000000000000000, -0.0000000000000000000 ) ) ;
#178 = EDGE_LOOP ( 'NONE', ( #290 ) ) ;
#179 = ADVANCED_FACE ( 'NONE', ( #8, #147 ), #274, .F. ) ;
#180 = AXIS2_PLACEMENT_3D ( 'NONE', #344, #201, #24 ) ;
#181 = DIRECTION ( 'NONE',  ( 0.0000000000000000000, 0.0000000000000000000, 1.000000000000000000 ) ) ;
#182 = CARTESIAN_POINT ( 'NONE',  ( -90.00000000000000000, 0.0000000000000000000, 0.0000000000000000000 ) ) ;
#183 = EDGE_LOOP ( 'NONE', ( #289 ) ) ;
#184 = DIRECTION ( 'NONE',  ( -1.000000000000000000, -0.0000000000000000000, -0.0000000000000000000 ) ) ;
#185 =( GEOMETRIC_REPRESENTATION_CONTEXT ( 3 ) GLOBAL_UNCERTAINTY_ASSIGNED_CONTEXT ( ( #363 ) ) GLOBAL_UNIT_ASSIGNED_CONTEXT ( ( #65, #234, #327 ) ) REPRESENTATION_CONTEXT ( 'NONE', 'WORKASPACE' ) );
#186 = CARTESIAN_POINT ( 'NONE',  ( -1.991858428704203200, 0.0000000000000000000, 1.500000000000000000 ) ) ;
#187 = FACE_OUTER_BOUND ( 'NONE', #145, .T. ) ;
#188 = CARTESIAN_POINT ( 'NONE',  ( -80.00000000000000000, 0.0000000000000000000, 8.799999999999988300 ) ) ;
#189 = CARTESIAN_POINT ( 'NONE',  ( 0.0000000000000000000, 0.0000000000000000000, 0.0000000000000000000 ) ) ;
#190 = VERTEX_POINT ( 'NONE', #162 ) ;
#191 = CARTESIAN_POINT ( 'NONE',  ( -80.40000000000000600, 0.0000000000000000000, 0.0000000000000000000 ) ) ;
#192 = EDGE_LOOP ( 'NONE', ( #138 ) ) ;
#193 = EDGE_CURVE ( 'NONE', #132, #132, #307, .T. ) ;
#194 = EDGE_LOOP ( 'NONE', ( #124 ) ) ;
#195 = CARTESIAN_POINT ( 'NONE',  ( -83.37051663148335500, 0.0000000000000000000, 4.999999999999999100 ) ) ;
#196 = PRESENTATION_LAYER_ASSIGNMENT (  '', '', ( #22 ) ) ;
#197 = FACE_OUTER_BOUND ( 'NONE', #136, .T. ) ;
#198 = DIRECTION ( 'NONE',  ( 0.0000000000000000000, 0.0000000000000000000, 1.000000000000000000 ) ) ;
#199 = AXIS2_PLACEMENT_3D ( 'NONE', #325, #277, #210 ) ;
#200 = DIRECTION ( 'NONE',  ( 0.0000000000000000000, 0.0000000000000000000, 1.000000000000000000 ) ) ;
#201 = DIRECTION ( 'NONE',  ( -1.000000000000000000, -0.0000000000000000000, -0.0000000000000000000 ) ) ;
#202 =( NAMED_UNIT ( * ) PLANE_ANGLE_UNIT ( ) SI_UNIT ( $, .RADIAN. ) );
#203 = ORIENTED_EDGE ( 'NONE', *, *, #360, .F. ) ;
#204 = ORIENTED_EDGE ( 'NONE', *, *, #148, .T. ) ;
#205 = PRODUCT_DEFINITION_SHAPE ( 'NONE', 'NONE',  #89 ) ;
#206 = VERTEX_POINT ( 'NONE', #311 ) ;
#207 = FACE_OUTER_BOUND ( 'NONE', #275, .T. ) ;
#208 = AXIS2_PLACEMENT_3D ( 'NONE', #359, #221, #16 ) ;
#209 = MECHANICAL_DESIGN_GEOMETRIC_PRESENTATION_REPRESENTATION (  '', ( #22 ), #185 ) ;
#210 = DIRECTION ( 'NONE',  ( 0.0000000000000000000, 0.0000000000000000000, 1.000000000000000000 ) ) ;
#211 = ORIENTED_EDGE ( 'NONE', *, *, #237, .F. ) ;
#212 = CARTESIAN_POINT ( 'NONE',  ( -90.00000000000000000, 0.0000000000000000000, 0.0000000000000000000 ) ) ;
#213 = AXIS2_PLACEMENT_3D ( 'NONE', #54, #116, #317 ) ;
#214 = VERTEX_POINT ( 'NONE', #195 ) ;
#215 = DIRECTION ( 'NONE',  ( 0.0000000000000000000, 0.0000000000000000000, 1.000000000000000000 ) ) ;
#216 = PRODUCT_CONTEXT ( 'NONE', #224, 'mechanical' ) ;
#217 = CARTESIAN_POINT ( 'NONE',  ( 0.0000000000000000000, 0.0000000000000000000, -2.649999999999999900 ) ) ;
#218 = EDGE_CURVE ( 'NONE', #55, #55, #81, .T. ) ;
#219 = PLANE ( 'NONE',  #316 ) ;
#220 = DIRECTION ( 'NONE',  ( -1.000000000000000000, -0.0000000000000000000, -0.0000000000000000000 ) ) ;
#221 = DIRECTION ( 'NONE',  ( 1.000000000000000000, 0.0000000000000000000, 0.0000000000000000000 ) ) ;
#222 = EDGE_LOOP ( 'NONE', ( #367 ) ) ;
#223 = ADVANCED_FACE ( 'NONE', ( #140, #350 ), #333, .F. ) ;
#224 = APPLICATION_CONTEXT ( 'automotive_design' ) ;
#225 = CIRCLE ( 'NONE', #105, 3.849999999999999200 ) ;
#226 = CARTESIAN_POINT ( 'NONE',  ( -21.74455826141793200, 0.0000000000000000000, 0.0000000000000000000 ) ) ;
#227 = FILL_AREA_STYLE ('',( #85 ) ) ;
#228 = AXIS2_PLACEMENT_3D ( 'NONE', #96, #39, #123 ) ;
#229 = AXIS2_PLACEMENT_3D ( 'NONE', #212, #177, #37 ) ;
#230 = CIRCLE ( 'NONE', #62, 8.999999999999987600 ) ;
#231 = UNCERTAINTY_MEASURE_WITH_UNIT (LENGTH_MEASURE( 1.000000000000000100E-005 ), #2, 'distance_accuracy_value', 'NONE');
#232 = FACE_OUTER_BOUND ( 'NONE', #34, .T. ) ;
#233 = ADVANCED_FACE ( 'NONE', ( #258, #61 ), #173, .T. ) ;
#234 =( NAMED_UNIT ( * ) PLANE_ANGLE_UNIT ( ) SI_UNIT ( $, .RADIAN. ) );
#235 = EDGE_CURVE ( 'NONE', #103, #103, #268, .T. ) ;
#236 = ADVANCED_FACE ( 'NONE', ( #133, #252 ), #91, .T. ) ;
#237 = EDGE_CURVE ( 'NONE', #303, #303, #320, .T. ) ;
#238 = EDGE_LOOP ( 'NONE', ( #340 ) ) ;
#239 = CARTESIAN_POINT ( 'NONE',  ( -89.25000000000002800, 0.0000000000000000000, 0.0000000000000000000 ) ) ;
#240 = FACE_OUTER_BOUND ( 'NONE', #194, .T. ) ;
#241 = PRESENTATION_STYLE_ASSIGNMENT (( #5 ) ) ;
#242 = CIRCLE ( 'NONE', #12, 3.943582222752405100 ) ;
#243 = CARTESIAN_POINT ( 'NONE',  ( -79.99999999999998600, 0.0000000000000000000, -8.799999999999988300 ) ) ;
#244 = ORIENTED_EDGE ( 'NONE', *, *, #150, .F. ) ;
#245 = DIRECTION ( 'NONE',  ( -1.000000000000000000, -0.0000000000000000000, -0.0000000000000000000 ) ) ;
#246 = AXIS2_PLACEMENT_3D ( 'NONE', #243, #13, #67 ) ;
#247 = DIRECTION ( 'NONE',  ( 0.0000000000000000000, 0.0000000000000000000, 1.000000000000000000 ) ) ;
#248 = DIRECTION ( 'NONE',  ( 0.0000000000000000000, 0.0000000000000000000, 1.000000000000000000 ) ) ;
#249 = CARTESIAN_POINT ( 'NONE',  ( -21.74455826141793200, 0.0000000000000000000, 0.0000000000000000000 ) ) ;
#250 = CARTESIAN_POINT ( 'NONE',  ( -79.79999999999999700, 0.0000000000000000000, 0.0000000000000000000 ) ) ;
#251 = CIRCLE ( 'NONE', #134, 8.799999999999988300 ) ;
#252 = FACE_OUTER_BOUND ( 'NONE', #66, .T. ) ;
#253 = SURFACE_STYLE_FILL_AREA ( #227 ) ;
#254 = AXIS2_PLACEMENT_3D ( 'NONE', #263, #354, #349 ) ;
#255 = ORIENTED_EDGE ( 'NONE', *, *, #235, .T. ) ;
#256 = ADVANCED_FACE ( 'NONE', ( #294, #69 ), #219, .F. ) ;
#257 = APPLICATION_PROTOCOL_DEFINITION ( 'draft international standard', 'automotive_design', 1998, #224 ) ;
#258 = FACE_OUTER_BOUND ( 'NONE', #183, .T. ) ;
#259 = AXIS2_PLACEMENT_3D ( 'NONE', #77, #135, #17 ) ;
#260 =( NAMED_UNIT ( * ) PLANE_ANGLE_UNIT ( ) SI_UNIT ( $, .RADIAN. ) );
#261 = DIRECTION ( 'NONE',  ( 0.0000000000000000000, 0.0000000000000000000, 1.000000000000000000 ) ) ;
#262 = CYLINDRICAL_SURFACE ( 'NONE', #27, 8.999999999999994700 ) ;
#263 = CARTESIAN_POINT ( 'NONE',  ( -89.25000000000002800, 0.0000000000000000000, 0.0000000000000000000 ) ) ;
#264 = ORIENTED_EDGE ( 'NONE', *, *, #83, .T. ) ;
#265 = ORIENTED_EDGE ( 'NONE', *, *, #150, .T. ) ;
#266 = ADVANCED_FACE ( 'NONE', ( #64, #207 ), #336, .F. ) ;
#267 =( GEOMETRIC_REPRESENTATION_CONTEXT ( 3 ) GLOBAL_UNCERTAINTY_ASSIGNED_CONTEXT ( ( #94 ) ) GLOBAL_UNIT_ASSIGNED_CONTEXT ( ( #52, #21, #50 ) ) REPRESENTATION_CONTEXT ( 'NONE', 'WORKASPACE' ) );
#268 = CIRCLE ( 'NONE', #229, 2.500000000000000000 ) ;
#269 = FACE_OUTER_BOUND ( 'NONE', #300, .T. ) ;
#270 = UNCERTAINTY_MEASURE_WITH_UNIT (LENGTH_MEASURE( 1.000000000000000100E-005 ), #296, 'distance_accuracy_value', 'NONE');
#271 = CARTESIAN_POINT ( 'NONE',  ( -80.40000000000000600, 0.0000000000000000000, 0.0000000000000000000 ) ) ;
#272 = EDGE_LOOP ( 'NONE', ( #264 ) ) ;
#273 = FACE_OUTER_BOUND ( 'NONE', #160, .T. ) ;
#274 = PLANE ( 'NONE',  #246 ) ;
#275 = EDGE_LOOP ( 'NONE', ( #60 ) ) ;
#276 = AXIS2_PLACEMENT_3D ( 'NONE', #271, #330, #156 ) ;
#277 = DIRECTION ( 'NONE',  ( -1.000000000000000000, -0.0000000000000000000, -0.0000000000000000000 ) ) ;
#278 = ADVANCED_BREP_SHAPE_REPRESENTATION ( 'HS0.U18.K01.080', ( #121, #3 ), #267 ) ;
#279 = DIRECTION ( 'NONE',  ( 0.0000000000000000000, 0.0000000000000000000, 1.000000000000000000 ) ) ;
#280 = EDGE_LOOP ( 'NONE', ( #10 ) ) ;
#281 = DIRECTION ( 'NONE',  ( -1.000000000000000000, -0.0000000000000000000, -0.0000000000000000000 ) ) ;
#282 = AXIS2_PLACEMENT_3D ( 'NONE', #182, #304, #98 ) ;
#283 = CARTESIAN_POINT ( 'NONE',  ( -88.26794919243113200, 0.0000000000000000000, 1.500000000000000000 ) ) ;
#284 = ORIENTED_EDGE ( 'NONE', *, *, #193, .T. ) ;
#285 = DIRECTION ( 'NONE',  ( -1.000000000000000000, -0.0000000000000000000, -0.0000000000000000000 ) ) ;
#286 = CONICAL_SURFACE ( 'NONE', #282, 2.500000000000000000, 0.5235987755983037000 ) ;
#287 = PRESENTATION_STYLE_ASSIGNMENT (( #86 ) ) ;
#288 = PRODUCT ( 'HS0.U18.K01.080', 'HS0.U18.K01.080', '', ( #216 ) ) ;
#289 = ORIENTED_EDGE ( 'NONE', *, *, #83, .F. ) ;
#290 = ORIENTED_EDGE ( 'NONE', *, *, #167, .F. ) ;
#291 = PRODUCT_DEFINITION_CONTEXT ( 'detailed design', #310, 'design' ) ;
#292 = DIRECTION ( 'NONE',  ( 0.0000000000000000000, 0.0000000000000000000, 1.000000000000000000 ) ) ;
#293 = FACE_OUTER_BOUND ( 'NONE', #321, .T. ) ;
#294 = FACE_OUTER_BOUND ( 'NONE', #355, .T. ) ;
#295 = AXIS2_PLACEMENT_3D ( 'NONE', #189, #129, #332 ) ;
#296 =( LENGTH_UNIT ( ) NAMED_UNIT ( * ) SI_UNIT ( .MILLI., .METRE. ) );
#297 = DIRECTION ( 'NONE',  ( -1.000000000000000000, -0.0000000000000000000, -0.0000000000000000000 ) ) ;
#298 = VERTEX_POINT ( 'NONE', #73 ) ;
#299 = SURFACE_STYLE_USAGE ( .BOTH. , #57 ) ;
#300 = EDGE_LOOP ( 'NONE', ( #203 ) ) ;
#301 = AXIS2_PLACEMENT_3D ( 'NONE', #35, #353, #181 ) ;
#302 = FACE_OUTER_BOUND ( 'NONE', #346, .T. ) ;
#303 = VERTEX_POINT ( 'NONE', #283 ) ;
#304 = DIRECTION ( 'NONE',  ( -1.000000000000000000, -0.0000000000000000000, -0.0000000000000000000 ) ) ;
#305 = EDGE_LOOP ( 'NONE', ( #151 ) ) ;
#306 = DIRECTION ( 'NONE',  ( 0.0000000000000000000, 0.0000000000000000000, 1.000000000000000000 ) ) ;
#307 = CIRCLE ( 'NONE', #301, 4.249999999999999100 ) ;
#308 = PRESENTATION_LAYER_ASSIGNMENT (  '', '', ( #142 ) ) ;
#309 = CARTESIAN_POINT ( 'NONE',  ( -79.99999999999998600, 0.0000000000000000000, 4.249999999999999100 ) ) ;
#310 = APPLICATION_CONTEXT ( 'automotive_design' ) ;
#311 = CARTESIAN_POINT ( 'NONE',  ( -90.00000000000000000, 0.0000000000000000000, 4.250000000000000000 ) ) ;
#312 = CARTESIAN_POINT ( 'NONE',  ( 0.0000000000000000000, 0.0000000000000000000, 8.799999999999998900 ) ) ;
#313 = AXIS2_PLACEMENT_3D ( 'NONE', #250, #334, #72 ) ;
#314 = ADVANCED_FACE ( 'NONE', ( #41, #273 ), #53, .T. ) ;
#315 = DIRECTION ( 'NONE',  ( -1.000000000000000000, -0.0000000000000000000, -0.0000000000000000000 ) ) ;
#316 = AXIS2_PLACEMENT_3D ( 'NONE', #217, #44, #131 ) ;
#317 = DIRECTION ( 'NONE',  ( 0.0000000000000000000, 0.0000000000000000000, -1.000000000000000000 ) ) ;
#318 = EDGE_LOOP ( 'NONE', ( #79 ) ) ;
#319 = FACE_OUTER_BOUND ( 'NONE', #178, .T. ) ;
#320 = CIRCLE ( 'NONE', #70, 1.500000000000000000 ) ;
#321 = EDGE_LOOP ( 'NONE', ( #265 ) ) ;
#322 = ADVANCED_FACE ( 'NONE', ( #187, #197 ), #342, .T. ) ;
#323 = VERTEX_POINT ( 'NONE', #78 ) ;
#324 = EDGE_LOOP ( 'NONE', ( #49 ) ) ;
#325 = CARTESIAN_POINT ( 'NONE',  ( -0.2000000000000000100, 0.0000000000000000000, 0.0000000000000000000 ) ) ;
#326 = FACE_OUTER_BOUND ( 'NONE', #272, .T. ) ;
#327 =( NAMED_UNIT ( * ) SI_UNIT ( $, .STERADIAN. ) SOLID_ANGLE_UNIT ( ) );
#328 = EDGE_CURVE ( 'NONE', #323, #323, #242, .T. ) ;
#329 = EDGE_LOOP ( 'NONE', ( #58 ) ) ;
#330 = DIRECTION ( 'NONE',  ( -1.000000000000000000, -0.0000000000000000000, -0.0000000000000000000 ) ) ;
#331 = APPLICATION_PROTOCOL_DEFINITION ( 'draft international standard', 'automotive_design', 1998, #310 ) ;
#332 = DIRECTION ( 'NONE',  ( 0.0000000000000000000, 0.0000000000000000000, 1.000000000000000000 ) ) ;
#333 = TOROIDAL_SURFACE ( 'NONE', #228, 4.249999999999998200, 0.4000000000000010200 ) ;
#334 = DIRECTION ( 'NONE',  ( -1.000000000000000000, -0.0000000000000000000, -0.0000000000000000000 ) ) ;
#335 = CIRCLE ( 'NONE', #43, 4.999999999999999100 ) ;
#336 = PLANE ( 'NONE',  #208 ) ;
#337 = EDGE_CURVE ( 'NONE', #352, #352, #163, .T. ) ;
#338 = CARTESIAN_POINT ( 'NONE',  ( -82.11152695016812700, 0.0000000000000000000, 0.0000000000000000000 ) ) ;
#339 = ADVANCED_FACE ( 'NONE', ( #113, #102 ), #18, .T. ) ;
#340 = ORIENTED_EDGE ( 'NONE', *, *, #328, .T. ) ;
#341 = FILL_AREA_STYLE ('',( #164 ) ) ;
#342 = CYLINDRICAL_SURFACE ( 'NONE', #155, 3.849999999999996500 ) ;
#343 = EDGE_CURVE ( 'NONE', #190, #190, #225, .T. ) ;
#344 = CARTESIAN_POINT ( 'NONE',  ( -90.00000000000000000, 0.0000000000000000000, 0.0000000000000000000 ) ) ;
#345 = PRODUCT_DEFINITION_FORMATION_WITH_SPECIFIED_SOURCE ( 'ANY', '', #288, .NOT_KNOWN. ) ;
#346 = EDGE_LOOP ( 'NONE', ( #48 ) ) ;
#347 = EDGE_LOOP ( 'NONE', ( #166 ) ) ;
#348 = AXIS2_PLACEMENT_3D ( 'NONE', #239, #125, #215 ) ;
#349 = DIRECTION ( 'NONE',  ( 0.0000000000000000000, 0.0000000000000000000, -1.000000000000000000 ) ) ;
#350 = FACE_OUTER_BOUND ( 'NONE', #222, .T. ) ;
#351 = ADVANCED_FACE ( 'NONE', ( #240, #161 ), #154, .F. ) ;
#352 = VERTEX_POINT ( 'NONE', #312 ) ;
#353 = DIRECTION ( 'NONE',  ( -1.000000000000000000, -0.0000000000000000000, -0.0000000000000000000 ) ) ;
#354 = DIRECTION ( 'NONE',  ( 1.000000000000000000, 0.0000000000000000000, 0.0000000000000000000 ) ) ;
#355 = EDGE_LOOP ( 'NONE', ( #126 ) ) ;
#356 = DIRECTION ( 'NONE',  ( -1.000000000000000000, -0.0000000000000000000, -0.0000000000000000000 ) ) ;
#357 = CARTESIAN_POINT ( 'NONE',  ( -1.991858428704203200, 0.0000000000000000000, 0.0000000000000000000 ) ) ;
#358 = ORIENTED_EDGE ( 'NONE', *, *, #343, .F. ) ;
#359 = CARTESIAN_POINT ( 'NONE',  ( -90.00000000000000000, 0.0000000000000000000, -4.250000000000000000 ) ) ;
#360 = EDGE_CURVE ( 'NONE', #33, #33, #63, .T. ) ;
#361 = DIRECTION ( 'NONE',  ( -1.000000000000000000, -0.0000000000000000000, -0.0000000000000000000 ) ) ;
#362 = VERTEX_POINT ( 'NONE', #188 ) ;
#363 = UNCERTAINTY_MEASURE_WITH_UNIT (LENGTH_MEASURE( 1.000000000000000100E-005 ), #65, 'distance_accuracy_value', 'NONE');
#364 = DIRECTION ( 'NONE',  ( 0.0000000000000000000, 0.0000000000000000000, 1.000000000000000000 ) ) ;
#365 = CIRCLE ( 'NONE', #137, 9.000000000000000000 ) ;
#366 = CARTESIAN_POINT ( 'NONE',  ( -0.1999999999999987900, 0.0000000000000000000, 9.000000000000000000 ) ) ;
#367 = ORIENTED_EDGE ( 'NONE', *, *, #343, .T. ) ;
#368 =( GEOMETRIC_REPRESENTATION_CONTEXT ( 3 ) GLOBAL_UNCERTAINTY_ASSIGNED_CONTEXT ( ( #270 ) ) GLOBAL_UNIT_ASSIGNED_CONTEXT ( ( #296, #202, #114 ) ) REPRESENTATION_CONTEXT ( 'NONE', 'WORKASPACE' ) );
#369 = CIRCLE ( 'NONE', #276, 3.849999999999993400 ) ;
ENDSEC;
END-ISO-10303-21;
