ISO-10303-21;
HEADER;
FILE_DESCRIPTION (( 'STEP AP214' ),
    '1' );
FILE_NAME ('HS0.U16.K01.070.STEP',
    '2020-10-22T14:01:23',
    ( '' ),
    ( '' ),
    'SwSTEP 2.0',
    'SolidWorks 2017',
    '' );
FILE_SCHEMA (( 'AUTOMOTIVE_DESIGN' ));
ENDSEC;

DATA;
#1 = CYLINDRICAL_SURFACE ( 'NONE', #197, 4.999999999999999100 ) ;
#2 = FILL_AREA_STYLE ('',( #143 ) ) ;
#3 = FACE_BOUND ( 'NONE', #12, .T. ) ;
#4 = CARTESIAN_POINT ( 'NONE',  ( -80.00000000000000000, 0.0000000000000000000, 4.250000000000000000 ) ) ;
#5 = CARTESIAN_POINT ( 'NONE',  ( -78.26794919243114600, 0.0000000000000000000, 1.500000000000000000 ) ) ;
#6 = EDGE_CURVE ( 'NONE', #158, #158, #271, .T. ) ;
#7 = VERTEX_POINT ( 'NONE', #346 ) ;
#8 = ADVANCED_FACE ( 'NONE', ( #168, #359 ), #35, .F. ) ;
#9 = ADVANCED_BREP_SHAPE_REPRESENTATION ( 'HS0.U16.K01.070', ( #125, #69 ), #10 ) ;
#10 =( GEOMETRIC_REPRESENTATION_CONTEXT ( 3 ) GLOBAL_UNCERTAINTY_ASSIGNED_CONTEXT ( ( #319 ) ) GLOBAL_UNIT_ASSIGNED_CONTEXT ( ( #59, #227, #198 ) ) REPRESENTATION_CONTEXT ( 'NONE', 'WORKASPACE' ) );
#11 =( LENGTH_UNIT ( ) NAMED_UNIT ( * ) SI_UNIT ( .MILLI., .METRE. ) );
#12 = EDGE_LOOP ( 'NONE', ( #148 ) ) ;
#13 = ADVANCED_FACE ( 'NONE', ( #294, #41 ), #1, .T. ) ;
#14 = CARTESIAN_POINT ( 'NONE',  ( -80.00000000000000000, 0.0000000000000000000, 0.0000000000000000000 ) ) ;
#15 = EDGE_CURVE ( 'NONE', #65, #65, #86, .T. ) ;
#16 = DIRECTION ( 'NONE',  ( 0.0000000000000000000, 0.0000000000000000000, -1.000000000000000000 ) ) ;
#17 = FACE_BOUND ( 'NONE', #185, .T. ) ;
#18 = DIRECTION ( 'NONE',  ( -1.000000000000000000, -0.0000000000000000000, -0.0000000000000000000 ) ) ;
#19 = FACE_BOUND ( 'NONE', #32, .T. ) ;
#20 = DIRECTION ( 'NONE',  ( 0.0000000000000000000, 0.0000000000000000000, 1.000000000000000000 ) ) ;
#21 = AXIS2_PLACEMENT_3D ( 'NONE', #107, #28, #167 ) ;
#22 = CARTESIAN_POINT ( 'NONE',  ( 0.0000000000000000000, 0.0000000000000000000, 7.800000000000000700 ) ) ;
#23 = CARTESIAN_POINT ( 'NONE',  ( -0.1999999999999987900, 0.0000000000000000000, 0.0000000000000000000 ) ) ;
#24 = FACE_OUTER_BOUND ( 'NONE', #248, .T. ) ;
#25 = EDGE_CURVE ( 'NONE', #85, #85, #336, .T. ) ;
#26 = ORIENTED_EDGE ( 'NONE', *, *, #287, .F. ) ;
#27 = DIRECTION ( 'NONE',  ( -1.000000000000000000, -0.0000000000000000000, -0.0000000000000000000 ) ) ;
#28 = DIRECTION ( 'NONE',  ( -1.000000000000000000, -0.0000000000000000000, -0.0000000000000000000 ) ) ;
#29 = AXIS2_PLACEMENT_3D ( 'NONE', #244, #160, #20 ) ;
#30 = CARTESIAN_POINT ( 'NONE',  ( -73.37051663148338300, 0.0000000000000000000, 0.0000000000000000000 ) ) ;
#31 = CIRCLE ( 'NONE', #354, 3.943582222752406000 ) ;
#32 = EDGE_LOOP ( 'NONE', ( #318 ) ) ;
#33 = FACE_OUTER_BOUND ( 'NONE', #322, .T. ) ;
#34 = SURFACE_STYLE_USAGE ( .BOTH. , #257 ) ;
#35 = CYLINDRICAL_SURFACE ( 'NONE', #95, 1.500000000000000000 ) ;
#36 = ORIENTED_EDGE ( 'NONE', *, *, #238, .F. ) ;
#37 = AXIS2_PLACEMENT_3D ( 'NONE', #237, #93, #353 ) ;
#38 = VERTEX_POINT ( 'NONE', #170 ) ;
#39 = DIRECTION ( 'NONE',  ( 0.0000000000000000000, 0.0000000000000000000, 1.000000000000000000 ) ) ;
#40 = AXIS2_PLACEMENT_3D ( 'NONE', #141, #192, #135 ) ;
#41 = FACE_OUTER_BOUND ( 'NONE', #338, .T. ) ;
#42 = EDGE_LOOP ( 'NONE', ( #282 ) ) ;
#43 = EDGE_CURVE ( 'NONE', #184, #184, #67, .T. ) ;
#44 = PRODUCT_DEFINITION_SHAPE ( 'NONE', 'NONE',  #247 ) ;
#45 = DIRECTION ( 'NONE',  ( 0.0000000000000000000, 0.0000000000000000000, 1.000000000000000000 ) ) ;
#46 = EDGE_CURVE ( 'NONE', #72, #72, #302, .T. ) ;
#47 = DIRECTION ( 'NONE',  ( 0.0000000000000000000, 0.0000000000000000000, 1.000000000000000000 ) ) ;
#48 = SHAPE_DEFINITION_REPRESENTATION ( #44, #9 ) ;
#49 = FACE_OUTER_BOUND ( 'NONE', #174, .T. ) ;
#50 = SURFACE_STYLE_USAGE ( .BOTH. , #157 ) ;
#51 = DIRECTION ( 'NONE',  ( 1.000000000000000000, 0.0000000000000000000, 0.0000000000000000000 ) ) ;
#52 = DIRECTION ( 'NONE',  ( -1.000000000000000000, -0.0000000000000000000, -0.0000000000000000000 ) ) ;
#53 = ORIENTED_EDGE ( 'NONE', *, *, #254, .F. ) ;
#54 = CARTESIAN_POINT ( 'NONE',  ( -79.25000000000001400, 0.0000000000000000000, 0.0000000000000000000 ) ) ;
#55 = AXIS2_PLACEMENT_3D ( 'NONE', #364, #189, #74 ) ;
#56 = DIRECTION ( 'NONE',  ( -1.000000000000000000, -0.0000000000000000000, -0.0000000000000000000 ) ) ;
#57 = ORIENTED_EDGE ( 'NONE', *, *, #43, .F. ) ;
#58 = FACE_OUTER_BOUND ( 'NONE', #216, .T. ) ;
#59 =( LENGTH_UNIT ( ) NAMED_UNIT ( * ) SI_UNIT ( .MILLI., .METRE. ) );
#60 = ORIENTED_EDGE ( 'NONE', *, *, #287, .T. ) ;
#61 = AXIS2_PLACEMENT_3D ( 'NONE', #162, #219, #163 ) ;
#62 = DIRECTION ( 'NONE',  ( 0.0000000000000000000, 0.0000000000000000000, 1.000000000000000000 ) ) ;
#63 = EDGE_CURVE ( 'NONE', #263, #263, #144, .T. ) ;
#64 = ORIENTED_EDGE ( 'NONE', *, *, #15, .T. ) ;
#65 = VERTEX_POINT ( 'NONE', #22 ) ;
#66 = PRESENTATION_LAYER_ASSIGNMENT (  '', '', ( #232 ) ) ;
#67 = CIRCLE ( 'NONE', #306, 4.999999999999998200 ) ;
#68 = ADVANCED_FACE ( 'NONE', ( #96, #205 ), #124, .F. ) ;
#69 = AXIS2_PLACEMENT_3D ( 'NONE', #305, #62, #255 ) ;
#70 = ADVANCED_FACE ( 'NONE', ( #317, #3 ), #214, .F. ) ;
#71 = CARTESIAN_POINT ( 'NONE',  ( -70.40000000000000600, 0.0000000000000000000, 0.0000000000000000000 ) ) ;
#72 = VERTEX_POINT ( 'NONE', #145 ) ;
#73 = EDGE_CURVE ( 'NONE', #301, #301, #76, .T. ) ;
#74 = DIRECTION ( 'NONE',  ( 0.0000000000000000000, 0.0000000000000000000, 1.000000000000000000 ) ) ;
#75 = DIRECTION ( 'NONE',  ( -1.000000000000000000, -0.0000000000000000000, -0.0000000000000000000 ) ) ;
#76 = CIRCLE ( 'NONE', #142, 4.250000000000000000 ) ;
#77 = DIRECTION ( 'NONE',  ( 0.0000000000000000000, 0.0000000000000000000, -1.000000000000000000 ) ) ;
#78 = PRESENTATION_LAYER_ASSIGNMENT (  '', '', ( #120 ) ) ;
#79 = DIRECTION ( 'NONE',  ( 0.0000000000000000000, 0.0000000000000000000, 1.000000000000000000 ) ) ;
#80 = DIRECTION ( 'NONE',  ( 0.0000000000000000000, 0.0000000000000000000, 1.000000000000000000 ) ) ;
#81 = CARTESIAN_POINT ( 'NONE',  ( -72.11152695016814100, 0.0000000000000000000, 0.0000000000000000000 ) ) ;
#82 = EDGE_LOOP ( 'NONE', ( #173 ) ) ;
#83 = FACE_BOUND ( 'NONE', #97, .T. ) ;
#84 =( GEOMETRIC_REPRESENTATION_CONTEXT ( 3 ) GLOBAL_UNCERTAINTY_ASSIGNED_CONTEXT ( ( #361 ) ) GLOBAL_UNIT_ASSIGNED_CONTEXT ( ( #188, #362, #298 ) ) REPRESENTATION_CONTEXT ( 'NONE', 'WORKASPACE' ) );
#85 = VERTEX_POINT ( 'NONE', #106 ) ;
#86 = CIRCLE ( 'NONE', #37, 7.800000000000000700 ) ;
#87 = FACE_OUTER_BOUND ( 'NONE', #344, .T. ) ;
#88 = APPLICATION_PROTOCOL_DEFINITION ( 'draft international standard', 'automotive_design', 1998, #258 ) ;
#89 = EDGE_LOOP ( 'NONE', ( #26 ) ) ;
#90 = PRODUCT_RELATED_PRODUCT_CATEGORY ( 'part', '', ( #149 ) ) ;
#91 = FACE_OUTER_BOUND ( 'NONE', #331, .T. ) ;
#92 = CONICAL_SURFACE ( 'NONE', #150, 2.500000000000000000, 0.5235987755983037000 ) ;
#93 = DIRECTION ( 'NONE',  ( -1.000000000000000000, -0.0000000000000000000, -0.0000000000000000000 ) ) ;
#94 = SURFACE_SIDE_STYLE ('',( #356 ) ) ;
#95 = AXIS2_PLACEMENT_3D ( 'NONE', #179, #123, #39 ) ;
#96 = FACE_BOUND ( 'NONE', #180, .T. ) ;
#97 = EDGE_LOOP ( 'NONE', ( #262 ) ) ;
#98 = CARTESIAN_POINT ( 'NONE',  ( -69.79999999999999700, 0.0000000000000000000, 0.0000000000000000000 ) ) ;
#99 = DIRECTION ( 'NONE',  ( 0.0000000000000000000, 0.0000000000000000000, 1.000000000000000000 ) ) ;
#100 = AXIS2_PLACEMENT_3D ( 'NONE', #340, #304, #337 ) ;
#101 = ADVANCED_FACE ( 'NONE', ( #279, #288 ), #134, .F. ) ;
#102 = CARTESIAN_POINT ( 'NONE',  ( -80.00000000000000000, 0.0000000000000000000, 0.0000000000000000000 ) ) ;
#103 = CIRCLE ( 'NONE', #268, 3.849999999999999600 ) ;
#104 = TOROIDAL_SURFACE ( 'NONE', #137, 7.800000000000000700, 0.1999999999999998200 ) ;
#105 = CARTESIAN_POINT ( 'NONE',  ( -71.85441190629353500, 0.0000000000000000000, 0.0000000000000000000 ) ) ;
#106 = CARTESIAN_POINT ( 'NONE',  ( -70.00000000000001400, 0.0000000000000000000, 4.249999999999999100 ) ) ;
#107 = CARTESIAN_POINT ( 'NONE',  ( -21.74455826141793200, 0.0000000000000000000, 0.0000000000000000000 ) ) ;
#108 = EDGE_LOOP ( 'NONE', ( #234 ) ) ;
#109 = EDGE_LOOP ( 'NONE', ( #281 ) ) ;
#110 = DIRECTION ( 'NONE',  ( -1.000000000000000000, -0.0000000000000000000, -0.0000000000000000000 ) ) ;
#111 = CARTESIAN_POINT ( 'NONE',  ( -71.85441190629353500, 0.0000000000000000000, 0.0000000000000000000 ) ) ;
#112 = DIRECTION ( 'NONE',  ( -1.000000000000000000, -0.0000000000000000000, -0.0000000000000000000 ) ) ;
#113 = CIRCLE ( 'NONE', #297, 4.999999999999999100 ) ;
#114 = FACE_OUTER_BOUND ( 'NONE', #325, .T. ) ;
#115 = APPLICATION_PROTOCOL_DEFINITION ( 'draft international standard', 'automotive_design', 1998, #201 ) ;
#116 = AXIS2_PLACEMENT_3D ( 'NONE', #105, #156, #45 ) ;
#117 = ORIENTED_EDGE ( 'NONE', *, *, #316, .F. ) ;
#118 = UNCERTAINTY_MEASURE_WITH_UNIT (LENGTH_MEASURE( 1.000000000000000100E-005 ), #11, 'distance_accuracy_value', 'NONE');
#119 = EDGE_LOOP ( 'NONE', ( #203 ) ) ;
#120 = STYLED_ITEM ( 'NONE', ( #357 ), #9 ) ;
#121 = VERTEX_POINT ( 'NONE', #196 ) ;
#122 = FILL_AREA_STYLE ('',( #293 ) ) ;
#123 = DIRECTION ( 'NONE',  ( -1.000000000000000000, -0.0000000000000000000, -0.0000000000000000000 ) ) ;
#124 = PLANE ( 'NONE',  #334 ) ;
#125 = MANIFOLD_SOLID_BREP ( 'Rotation1', #222 ) ;
#126 = CARTESIAN_POINT ( 'NONE',  ( -0.2000000000000000100, 0.0000000000000000000, 0.0000000000000000000 ) ) ;
#127 = DIRECTION ( 'NONE',  ( 0.0000000000000000000, 0.0000000000000000000, -1.000000000000000000 ) ) ;
#128 = PRESENTATION_STYLE_ASSIGNMENT (( #50 ) ) ;
#129 = ADVANCED_FACE ( 'NONE', ( #24, #229 ), #235, .T. ) ;
#130 = VERTEX_POINT ( 'NONE', #252 ) ;
#131 = DIRECTION ( 'NONE',  ( -1.000000000000000000, -0.0000000000000000000, -0.0000000000000000000 ) ) ;
#132 = DIRECTION ( 'NONE',  ( 1.000000000000000000, 0.0000000000000000000, 0.0000000000000000000 ) ) ;
#133 = CARTESIAN_POINT ( 'NONE',  ( 0.0000000000000000000, 0.0000000000000000000, -2.649999999999999900 ) ) ;
#134 = TOROIDAL_SURFACE ( 'NONE', #275, 4.249999999999999100, 0.3999999999999917500 ) ;
#135 = DIRECTION ( 'NONE',  ( 0.0000000000000000000, 0.0000000000000000000, 1.000000000000000000 ) ) ;
#136 = COLOUR_RGB ( '',0.5764705882352940700, 0.5647058823529411700, 0.5490196078431373000 ) ;
#137 = AXIS2_PLACEMENT_3D ( 'NONE', #126, #183, #328 ) ;
#138 = DIRECTION ( 'NONE',  ( -1.000000000000000000, -0.0000000000000000000, -0.0000000000000000000 ) ) ;
#139 = ORIENTED_EDGE ( 'NONE', *, *, #254, .T. ) ;
#140 = CONICAL_SURFACE ( 'NONE', #313, 4.999999999999998200, 0.7853981633974557200 ) ;
#141 = CARTESIAN_POINT ( 'NONE',  ( -70.00000000000000000, 0.0000000000000000000, 0.0000000000000000000 ) ) ;
#142 = AXIS2_PLACEMENT_3D ( 'NONE', #102, #131, #99 ) ;
#143 = FILL_AREA_STYLE_COLOUR ( '', #136 ) ;
#144 = CIRCLE ( 'NONE', #278, 2.500000000000000000 ) ;
#145 = CARTESIAN_POINT ( 'NONE',  ( -69.79999999999999700, 0.0000000000000000000, 7.999999999999991100 ) ) ;
#146 = CARTESIAN_POINT ( 'NONE',  ( -71.85441190629353500, 0.0000000000000000000, 3.849999999999999600 ) ) ;
#147 = EDGE_CURVE ( 'NONE', #130, #130, #159, .T. ) ;
#148 = ORIENTED_EDGE ( 'NONE', *, *, #6, .T. ) ;
#149 = PRODUCT ( 'HS0.U16.K01.070', 'HS0.U16.K01.070', '', ( #349 ) ) ;
#150 = AXIS2_PLACEMENT_3D ( 'NONE', #14, #186, #80 ) ;
#151 = ORIENTED_EDGE ( 'NONE', *, *, #351, .T. ) ;
#152 = EDGE_LOOP ( 'NONE', ( #266 ) ) ;
#153 = DIRECTION ( 'NONE',  ( -1.000000000000000000, -0.0000000000000000000, -0.0000000000000000000 ) ) ;
#154 = DIRECTION ( 'NONE',  ( -1.000000000000000000, -0.0000000000000000000, -0.0000000000000000000 ) ) ;
#155 = AXIS2_PLACEMENT_3D ( 'NONE', #23, #27, #342 ) ;
#156 = DIRECTION ( 'NONE',  ( -1.000000000000000000, -0.0000000000000000000, -0.0000000000000000000 ) ) ;
#157 = SURFACE_SIDE_STYLE ('',( #239 ) ) ;
#158 = VERTEX_POINT ( 'NONE', #220 ) ;
#159 = CIRCLE ( 'NONE', #55, 1.500000000000000000 ) ;
#160 = DIRECTION ( 'NONE',  ( -1.000000000000000000, -0.0000000000000000000, -0.0000000000000000000 ) ) ;
#161 = CARTESIAN_POINT ( 'NONE',  ( -72.11152695016814100, 0.0000000000000000000, 0.0000000000000000000 ) ) ;
#162 = CARTESIAN_POINT ( 'NONE',  ( -70.40000000000000600, 0.0000000000000000000, 0.0000000000000000000 ) ) ;
#163 = DIRECTION ( 'NONE',  ( 0.0000000000000000000, 0.0000000000000000000, 1.000000000000000000 ) ) ;
#164 = EDGE_LOOP ( 'NONE', ( #117 ) ) ;
#165 =( GEOMETRIC_REPRESENTATION_CONTEXT ( 3 ) GLOBAL_UNCERTAINTY_ASSIGNED_CONTEXT ( ( #118 ) ) GLOBAL_UNIT_ASSIGNED_CONTEXT ( ( #11, #206, #208 ) ) REPRESENTATION_CONTEXT ( 'NONE', 'WORKASPACE' ) );
#166 = CARTESIAN_POINT ( 'NONE',  ( -21.74455826141793200, 0.0000000000000000000, 0.0000000000000000000 ) ) ;
#167 = DIRECTION ( 'NONE',  ( 0.0000000000000000000, 0.0000000000000000000, 1.000000000000000000 ) ) ;
#168 = FACE_OUTER_BOUND ( 'NONE', #109, .T. ) ;
#169 = CIRCLE ( 'NONE', #155, 8.000000000000000000 ) ;
#170 = CARTESIAN_POINT ( 'NONE',  ( -70.40000000000000600, 0.0000000000000000000, 3.850000000000008100 ) ) ;
#171 = AXIS2_PLACEMENT_3D ( 'NONE', #166, #52, #369 ) ;
#172 = ORIENTED_EDGE ( 'NONE', *, *, #238, .T. ) ;
#173 = ORIENTED_EDGE ( 'NONE', *, *, #46, .T. ) ;
#174 = EDGE_LOOP ( 'NONE', ( #172 ) ) ;
#175 = FACE_OUTER_BOUND ( 'NONE', #347, .T. ) ;
#176 = MECHANICAL_DESIGN_GEOMETRIC_PRESENTATION_REPRESENTATION (  '', ( #213 ), #165 ) ;
#177 = ADVANCED_FACE ( 'NONE', ( #87, #17 ), #224, .F. ) ;
#178 = DIRECTION ( 'NONE',  ( 0.0000000000000000000, 0.0000000000000000000, 1.000000000000000000 ) ) ;
#179 = CARTESIAN_POINT ( 'NONE',  ( -21.74455826141793200, 0.0000000000000000000, 0.0000000000000000000 ) ) ;
#180 = EDGE_LOOP ( 'NONE', ( #240 ) ) ;
#181 = SURFACE_STYLE_USAGE ( .BOTH. , #94 ) ;
#182 =( GEOMETRIC_REPRESENTATION_CONTEXT ( 3 ) GLOBAL_UNCERTAINTY_ASSIGNED_CONTEXT ( ( #289 ) ) GLOBAL_UNIT_ASSIGNED_CONTEXT ( ( #314, #285, #286 ) ) REPRESENTATION_CONTEXT ( 'NONE', 'WORKASPACE' ) );
#183 = DIRECTION ( 'NONE',  ( -1.000000000000000000, -0.0000000000000000000, -0.0000000000000000000 ) ) ;
#184 = VERTEX_POINT ( 'NONE', #191 ) ;
#185 = EDGE_LOOP ( 'NONE', ( #311 ) ) ;
#186 = DIRECTION ( 'NONE',  ( -1.000000000000000000, -0.0000000000000000000, -0.0000000000000000000 ) ) ;
#187 = TOROIDAL_SURFACE ( 'NONE', #116, 4.249999999999999100, 0.4000000000000006300 ) ;
#188 =( LENGTH_UNIT ( ) NAMED_UNIT ( * ) SI_UNIT ( .MILLI., .METRE. ) );
#189 = DIRECTION ( 'NONE',  ( -1.000000000000000000, -0.0000000000000000000, -0.0000000000000000000 ) ) ;
#190 = COLOUR_RGB ( '',0.7529411764705882200, 0.7529411764705882200, 0.7529411764705882200 ) ;
#191 = CARTESIAN_POINT ( 'NONE',  ( -79.25000000000001400, 0.0000000000000000000, 4.999999999999998200 ) ) ;
#192 = DIRECTION ( 'NONE',  ( -1.000000000000000000, -0.0000000000000000000, -0.0000000000000000000 ) ) ;
#193 = EDGE_LOOP ( 'NONE', ( #221 ) ) ;
#194 = CYLINDRICAL_SURFACE ( 'NONE', #21, 7.999999999999996400 ) ;
#195 = PRESENTATION_LAYER_ASSIGNMENT (  '', '', ( #213 ) ) ;
#196 = CARTESIAN_POINT ( 'NONE',  ( -73.37051663148338300, 0.0000000000000000000, 4.999999999999999100 ) ) ;
#197 = AXIS2_PLACEMENT_3D ( 'NONE', #358, #264, #321 ) ;
#198 =( NAMED_UNIT ( * ) SI_UNIT ( $, .STERADIAN. ) SOLID_ANGLE_UNIT ( ) );
#199 = COLOUR_RGB ( '',0.5764705882352940700, 0.5647058823529411700, 0.5490196078431373000 ) ;
#200 = CARTESIAN_POINT ( 'NONE',  ( -72.11152695016814100, 0.0000000000000000000, 3.943582222752406000 ) ) ;
#201 = APPLICATION_CONTEXT ( 'automotive_design' ) ;
#202 = ORIENTED_EDGE ( 'NONE', *, *, #292, .T. ) ;
#203 = ORIENTED_EDGE ( 'NONE', *, *, #339, .T. ) ;
#204 = VERTEX_POINT ( 'NONE', #146 ) ;
#205 = FACE_OUTER_BOUND ( 'NONE', #250, .T. ) ;
#206 =( NAMED_UNIT ( * ) PLANE_ANGLE_UNIT ( ) SI_UNIT ( $, .RADIAN. ) );
#207 = AXIS2_PLACEMENT_3D ( 'NONE', #273, #51, #127 ) ;
#208 =( NAMED_UNIT ( * ) SI_UNIT ( $, .STERADIAN. ) SOLID_ANGLE_UNIT ( ) );
#209 = ADVANCED_FACE ( 'NONE', ( #332, #175 ), #104, .T. ) ;
#210 = DIRECTION ( 'NONE',  ( -1.000000000000000000, 0.0000000000000000000, -0.0000000000000000000 ) ) ;
#211 = EDGE_LOOP ( 'NONE', ( #139 ) ) ;
#212 = FACE_OUTER_BOUND ( 'NONE', #152, .T. ) ;
#213 = STYLED_ITEM ( 'NONE', ( #307 ), #13 ) ;
#214 = PLANE ( 'NONE',  #256 ) ;
#215 = AXIS2_PLACEMENT_3D ( 'NONE', #98, #303, #300 ) ;
#216 = EDGE_LOOP ( 'NONE', ( #36 ) ) ;
#217 = DIRECTION ( 'NONE',  ( -0.0000000000000000000, 0.0000000000000000000, 1.000000000000000000 ) ) ;
#218 = DIRECTION ( 'NONE',  ( 0.0000000000000000000, 0.0000000000000000000, 1.000000000000000000 ) ) ;
#219 = DIRECTION ( 'NONE',  ( -1.000000000000000000, -0.0000000000000000000, -0.0000000000000000000 ) ) ;
#220 = CARTESIAN_POINT ( 'NONE',  ( 0.0000000000000000000, 0.0000000000000000000, 2.649999999999999900 ) ) ;
#221 = ORIENTED_EDGE ( 'NONE', *, *, #15, .F. ) ;
#222 = CLOSED_SHELL ( 'NONE', ( #270, #8, #177, #70, #209, #290, #129, #329, #101, #330, #236, #324, #13, #243, #68 ) ) ;
#223 = AXIS2_PLACEMENT_3D ( 'NONE', #367, #138, #335 ) ;
#224 = CONICAL_SURFACE ( 'NONE', #207, 1.500000000000000000, 0.5235987755983001500 ) ;
#225 = ORIENTED_EDGE ( 'NONE', *, *, #292, .F. ) ;
#226 = CARTESIAN_POINT ( 'NONE',  ( -70.00000000000000000, 0.0000000000000000000, 7.799999999999991800 ) ) ;
#227 =( NAMED_UNIT ( * ) PLANE_ANGLE_UNIT ( ) SI_UNIT ( $, .RADIAN. ) );
#228 = PRODUCT_DEFINITION_FORMATION_WITH_SPECIFIED_SOURCE ( 'ANY', '', #149, .NOT_KNOWN. ) ;
#229 = FACE_OUTER_BOUND ( 'NONE', #82, .T. ) ;
#230 = VERTEX_POINT ( 'NONE', #200 ) ;
#231 = PRODUCT_DEFINITION_CONTEXT ( 'detailed design', #258, 'design' ) ;
#232 = STYLED_ITEM ( 'NONE', ( #128 ), #125 ) ;
#233 = CIRCLE ( 'NONE', #61, 3.850000000000008100 ) ;
#234 = ORIENTED_EDGE ( 'NONE', *, *, #351, .F. ) ;
#235 = TOROIDAL_SURFACE ( 'NONE', #291, 7.799999999999991800, 0.2000000000000027000 ) ;
#236 = ADVANCED_FACE ( 'NONE', ( #320, #49 ), #187, .F. ) ;
#237 = CARTESIAN_POINT ( 'NONE',  ( 0.0000000000000000000, 0.0000000000000000000, 0.0000000000000000000 ) ) ;
#238 = EDGE_CURVE ( 'NONE', #204, #204, #103, .T. ) ;
#239 = SURFACE_STYLE_FILL_AREA ( #333 ) ;
#240 = ORIENTED_EDGE ( 'NONE', *, *, #63, .F. ) ;
#241 = CARTESIAN_POINT ( 'NONE',  ( -80.00000000000000000, 0.0000000000000000000, -4.250000000000000000 ) ) ;
#242 = CARTESIAN_POINT ( 'NONE',  ( -80.00000000000000000, 0.0000000000000000000, 0.0000000000000000000 ) ) ;
#243 = ADVANCED_FACE ( 'NONE', ( #83, #33 ), #140, .T. ) ;
#244 = CARTESIAN_POINT ( 'NONE',  ( -70.00000000000001400, 0.0000000000000000000, 0.0000000000000000000 ) ) ;
#245 = CONICAL_SURFACE ( 'NONE', #350, 3.943582222752406000, 0.6981317007977242400 ) ;
#246 = ORIENTED_EDGE ( 'NONE', *, *, #63, .T. ) ;
#247 = PRODUCT_DEFINITION ( 'UNKNOWN', '', #228, #231 ) ;
#248 = EDGE_LOOP ( 'NONE', ( #272 ) ) ;
#249 = DIRECTION ( 'NONE',  ( 0.0000000000000000000, 0.0000000000000000000, 1.000000000000000000 ) ) ;
#250 = EDGE_LOOP ( 'NONE', ( #284 ) ) ;
#251 = DIRECTION ( 'NONE',  ( 1.000000000000000000, 0.0000000000000000000, 0.0000000000000000000 ) ) ;
#252 = CARTESIAN_POINT ( 'NONE',  ( -1.991858428704203200, 0.0000000000000000000, 1.500000000000000000 ) ) ;
#253 = FACE_OUTER_BOUND ( 'NONE', #259, .T. ) ;
#254 = EDGE_CURVE ( 'NONE', #230, #230, #31, .T. ) ;
#255 = DIRECTION ( 'NONE',  ( 1.000000000000000000, 0.0000000000000000000, 0.0000000000000000000 ) ) ;
#256 = AXIS2_PLACEMENT_3D ( 'NONE', #133, #210, #217 ) ;
#257 = SURFACE_SIDE_STYLE ('',( #343 ) ) ;
#258 = APPLICATION_CONTEXT ( 'automotive_design' ) ;
#259 = EDGE_LOOP ( 'NONE', ( #225 ) ) ;
#260 = EDGE_LOOP ( 'NONE', ( #246 ) ) ;
#261 = VERTEX_POINT ( 'NONE', #226 ) ;
#262 = ORIENTED_EDGE ( 'NONE', *, *, #73, .F. ) ;
#263 = VERTEX_POINT ( 'NONE', #315 ) ;
#264 = DIRECTION ( 'NONE',  ( -1.000000000000000000, -0.0000000000000000000, -0.0000000000000000000 ) ) ;
#265 = DIRECTION ( 'NONE',  ( -1.000000000000000000, -0.0000000000000000000, -0.0000000000000000000 ) ) ;
#266 = ORIENTED_EDGE ( 'NONE', *, *, #46, .F. ) ;
#267 = EDGE_LOOP ( 'NONE', ( #60 ) ) ;
#268 = AXIS2_PLACEMENT_3D ( 'NONE', #111, #366, #249 ) ;
#269 = DIRECTION ( 'NONE',  ( 0.0000000000000000000, 0.0000000000000000000, 1.000000000000000000 ) ) ;
#270 = ADVANCED_FACE ( 'NONE', ( #283, #312 ), #92, .F. ) ;
#271 = CIRCLE ( 'NONE', #327, 2.649999999999999900 ) ;
#272 = ORIENTED_EDGE ( 'NONE', *, *, #339, .F. ) ;
#273 = CARTESIAN_POINT ( 'NONE',  ( -1.991858428704203200, 0.0000000000000000000, 0.0000000000000000000 ) ) ;
#274 = FACE_BOUND ( 'NONE', #211, .T. ) ;
#275 = AXIS2_PLACEMENT_3D ( 'NONE', #71, #153, #299 ) ;
#276 = DIRECTION ( 'NONE',  ( 0.0000000000000000000, 0.0000000000000000000, 1.000000000000000000 ) ) ;
#277 = FILL_AREA_STYLE_COLOUR ( '', #199 ) ;
#278 = AXIS2_PLACEMENT_3D ( 'NONE', #242, #154, #47 ) ;
#279 = FACE_OUTER_BOUND ( 'NONE', #108, .T. ) ;
#280 = MECHANICAL_DESIGN_GEOMETRIC_PRESENTATION_REPRESENTATION (  '', ( #232 ), #84 ) ;
#281 = ORIENTED_EDGE ( 'NONE', *, *, #147, .F. ) ;
#282 = ORIENTED_EDGE ( 'NONE', *, *, #25, .T. ) ;
#283 = FACE_BOUND ( 'NONE', #89, .T. ) ;
#284 = ORIENTED_EDGE ( 'NONE', *, *, #73, .T. ) ;
#285 =( NAMED_UNIT ( * ) PLANE_ANGLE_UNIT ( ) SI_UNIT ( $, .RADIAN. ) );
#286 =( NAMED_UNIT ( * ) SI_UNIT ( $, .STERADIAN. ) SOLID_ANGLE_UNIT ( ) );
#287 = EDGE_CURVE ( 'NONE', #296, #296, #323, .T. ) ;
#288 = FACE_OUTER_BOUND ( 'NONE', #42, .T. ) ;
#289 = UNCERTAINTY_MEASURE_WITH_UNIT (LENGTH_MEASURE( 1.000000000000000100E-005 ), #314, 'distance_accuracy_value', 'NONE');
#290 = ADVANCED_FACE ( 'NONE', ( #212, #114 ), #194, .T. ) ;
#291 = AXIS2_PLACEMENT_3D ( 'NONE', #363, #18, #269 ) ;
#292 = EDGE_CURVE ( 'NONE', #121, #121, #113, .T. ) ;
#293 = FILL_AREA_STYLE_COLOUR ( '', #190 ) ;
#294 = FACE_OUTER_BOUND ( 'NONE', #348, .T. ) ;
#295 = ORIENTED_EDGE ( 'NONE', *, *, #43, .T. ) ;
#296 = VERTEX_POINT ( 'NONE', #5 ) ;
#297 = AXIS2_PLACEMENT_3D ( 'NONE', #30, #110, #341 ) ;
#298 =( NAMED_UNIT ( * ) SI_UNIT ( $, .STERADIAN. ) SOLID_ANGLE_UNIT ( ) );
#299 = DIRECTION ( 'NONE',  ( 0.0000000000000000000, 0.0000000000000000000, 1.000000000000000000 ) ) ;
#300 = DIRECTION ( 'NONE',  ( 0.0000000000000000000, 0.0000000000000000000, 1.000000000000000000 ) ) ;
#301 = VERTEX_POINT ( 'NONE', #4 ) ;
#302 = CIRCLE ( 'NONE', #215, 7.999999999999991100 ) ;
#303 = DIRECTION ( 'NONE',  ( -1.000000000000000000, -0.0000000000000000000, -0.0000000000000000000 ) ) ;
#304 = DIRECTION ( 'NONE',  ( 1.000000000000000000, 0.0000000000000000000, 0.0000000000000000000 ) ) ;
#305 = CARTESIAN_POINT ( 'NONE',  ( 0.0000000000000000000, 0.0000000000000000000, 0.0000000000000000000 ) ) ;
#306 = AXIS2_PLACEMENT_3D ( 'NONE', #360, #75, #276 ) ;
#307 = PRESENTATION_STYLE_ASSIGNMENT (( #181 ) ) ;
#308 = ORIENTED_EDGE ( 'NONE', *, *, #6, .F. ) ;
#309 = PLANE ( 'NONE',  #100 ) ;
#310 = FACE_OUTER_BOUND ( 'NONE', #119, .T. ) ;
#311 = ORIENTED_EDGE ( 'NONE', *, *, #147, .T. ) ;
#312 = FACE_OUTER_BOUND ( 'NONE', #260, .T. ) ;
#313 = AXIS2_PLACEMENT_3D ( 'NONE', #54, #251, #77 ) ;
#314 =( LENGTH_UNIT ( ) NAMED_UNIT ( * ) SI_UNIT ( .MILLI., .METRE. ) );
#315 = CARTESIAN_POINT ( 'NONE',  ( -80.00000000000000000, 0.0000000000000000000, 2.500000000000000000 ) ) ;
#316 = EDGE_CURVE ( 'NONE', #7, #7, #169, .T. ) ;
#317 = FACE_OUTER_BOUND ( 'NONE', #193, .T. ) ;
#318 = ORIENTED_EDGE ( 'NONE', *, *, #25, .F. ) ;
#319 = UNCERTAINTY_MEASURE_WITH_UNIT (LENGTH_MEASURE( 1.000000000000000100E-005 ), #59, 'distance_accuracy_value', 'NONE');
#320 = FACE_OUTER_BOUND ( 'NONE', #326, .T. ) ;
#321 = DIRECTION ( 'NONE',  ( 0.0000000000000000000, 0.0000000000000000000, 1.000000000000000000 ) ) ;
#322 = EDGE_LOOP ( 'NONE', ( #295 ) ) ;
#323 = CIRCLE ( 'NONE', #223, 1.500000000000000000 ) ;
#324 = ADVANCED_FACE ( 'NONE', ( #253, #274 ), #245, .T. ) ;
#325 = EDGE_LOOP ( 'NONE', ( #365 ) ) ;
#326 = EDGE_LOOP ( 'NONE', ( #53 ) ) ;
#327 = AXIS2_PLACEMENT_3D ( 'NONE', #355, #265, #178 ) ;
#328 = DIRECTION ( 'NONE',  ( 0.0000000000000000000, 0.0000000000000000000, 1.000000000000000000 ) ) ;
#329 = ADVANCED_FACE ( 'NONE', ( #19, #310 ), #309, .F. ) ;
#330 = ADVANCED_FACE ( 'NONE', ( #58, #91 ), #352, .T. ) ;
#331 = EDGE_LOOP ( 'NONE', ( #151 ) ) ;
#332 = FACE_OUTER_BOUND ( 'NONE', #164, .T. ) ;
#333 = FILL_AREA_STYLE ('',( #277 ) ) ;
#334 = AXIS2_PLACEMENT_3D ( 'NONE', #241, #132, #16 ) ;
#335 = DIRECTION ( 'NONE',  ( 0.0000000000000000000, 0.0000000000000000000, 1.000000000000000000 ) ) ;
#336 = CIRCLE ( 'NONE', #29, 4.249999999999999100 ) ;
#337 = DIRECTION ( 'NONE',  ( 0.0000000000000000000, 0.0000000000000000000, -1.000000000000000000 ) ) ;
#338 = EDGE_LOOP ( 'NONE', ( #202 ) ) ;
#339 = EDGE_CURVE ( 'NONE', #261, #261, #345, .T. ) ;
#340 = CARTESIAN_POINT ( 'NONE',  ( -70.00000000000000000, 0.0000000000000000000, -7.799999999999991800 ) ) ;
#341 = DIRECTION ( 'NONE',  ( 0.0000000000000000000, 0.0000000000000000000, 1.000000000000000000 ) ) ;
#342 = DIRECTION ( 'NONE',  ( 0.0000000000000000000, 0.0000000000000000000, 1.000000000000000000 ) ) ;
#343 = SURFACE_STYLE_FILL_AREA ( #2 ) ;
#344 = EDGE_LOOP ( 'NONE', ( #308 ) ) ;
#345 = CIRCLE ( 'NONE', #40, 7.799999999999991800 ) ;
#346 = CARTESIAN_POINT ( 'NONE',  ( -0.1999999999999987900, 0.0000000000000000000, 8.000000000000000000 ) ) ;
#347 = EDGE_LOOP ( 'NONE', ( #64 ) ) ;
#348 = EDGE_LOOP ( 'NONE', ( #57 ) ) ;
#349 = PRODUCT_CONTEXT ( 'NONE', #201, 'mechanical' ) ;
#350 = AXIS2_PLACEMENT_3D ( 'NONE', #81, #56, #218 ) ;
#351 = EDGE_CURVE ( 'NONE', #38, #38, #233, .T. ) ;
#352 = CYLINDRICAL_SURFACE ( 'NONE', #171, 3.850000000000003600 ) ;
#353 = DIRECTION ( 'NONE',  ( 0.0000000000000000000, 0.0000000000000000000, 1.000000000000000000 ) ) ;
#354 = AXIS2_PLACEMENT_3D ( 'NONE', #161, #112, #79 ) ;
#355 = CARTESIAN_POINT ( 'NONE',  ( 0.0000000000000000000, 0.0000000000000000000, 0.0000000000000000000 ) ) ;
#356 = SURFACE_STYLE_FILL_AREA ( #122 ) ;
#357 = PRESENTATION_STYLE_ASSIGNMENT (( #34 ) ) ;
#358 = CARTESIAN_POINT ( 'NONE',  ( -21.74455826141793200, 0.0000000000000000000, 0.0000000000000000000 ) ) ;
#359 = FACE_OUTER_BOUND ( 'NONE', #267, .T. ) ;
#360 = CARTESIAN_POINT ( 'NONE',  ( -79.25000000000001400, 0.0000000000000000000, 0.0000000000000000000 ) ) ;
#361 = UNCERTAINTY_MEASURE_WITH_UNIT (LENGTH_MEASURE( 1.000000000000000100E-005 ), #188, 'distance_accuracy_value', 'NONE');
#362 =( NAMED_UNIT ( * ) PLANE_ANGLE_UNIT ( ) SI_UNIT ( $, .RADIAN. ) );
#363 = CARTESIAN_POINT ( 'NONE',  ( -69.79999999999999700, 0.0000000000000000000, 0.0000000000000000000 ) ) ;
#364 = CARTESIAN_POINT ( 'NONE',  ( -1.991858428704203200, 0.0000000000000000000, 0.0000000000000000000 ) ) ;
#365 = ORIENTED_EDGE ( 'NONE', *, *, #316, .T. ) ;
#366 = DIRECTION ( 'NONE',  ( -1.000000000000000000, -0.0000000000000000000, -0.0000000000000000000 ) ) ;
#367 = CARTESIAN_POINT ( 'NONE',  ( -78.26794919243114600, 0.0000000000000000000, 0.0000000000000000000 ) ) ;
#368 = MECHANICAL_DESIGN_GEOMETRIC_PRESENTATION_REPRESENTATION (  '', ( #120 ), #182 ) ;
#369 = DIRECTION ( 'NONE',  ( 0.0000000000000000000, 0.0000000000000000000, 1.000000000000000000 ) ) ;
ENDSEC;
END-ISO-10303-21;
