ISO-10303-21;
HEADER;
FILE_DESCRIPTION (( 'STEP AP214' ),
    '1' );
FILE_NAME ('A63.ER4.001.030.STEP',
    '2023-09-20T07:29:39',
    ( '' ),
    ( '' ),
    'SwSTEP 2.0',
    'SolidWorks 2017',
    '' );
FILE_SCHEMA (( 'AUTOMOTIVE_DESIGN' ));
ENDSEC;

DATA;
#1 = ORIENTED_EDGE ( 'NONE', *, *, #83, .F. ) ;
#2 =( LENGTH_UNIT ( ) NAMED_UNIT ( * ) SI_UNIT ( .MILLI., .METRE. ) );
#3 = ADVANCED_FACE ( 'NONE', ( #22 ), #49, .T. ) ;
#4 = EDGE_CURVE ( 'NONE', #88, #117, #13, .T. ) ;
#5 = AXIS2_PLACEMENT_3D ( 'NONE', #9, #21, #141 ) ;
#6 = DIRECTION ( 'NONE',  ( 1.384229318661581700E-031, 3.002902081720186500E-061, -1.000000000000000000 ) ) ;
#7 = DIRECTION ( 'NONE',  ( -1.084940535338142800E-030, 1.000000000000000000, 0.0000000000000000000 ) ) ;
#8 = DIRECTION ( 'NONE',  ( 0.0000000000000000000, 1.224646799147349500E-016, 1.000000000000000000 ) ) ;
#9 = CARTESIAN_POINT ( 'NONE',  ( 0.0000000000000000000, 0.0000000000000000000, 0.0000000000000000000 ) ) ;
#10 = EDGE_CURVE ( 'NONE', #117, #88, #108, .T. ) ;
#11 = ORIENTED_EDGE ( 'NONE', *, *, #30, .F. ) ;
#12 = SURFACE_SIDE_STYLE ('',( #87 ) ) ;
#13 = CIRCLE ( 'NONE', #81, 0.5000000000000002200 ) ;
#14 = AXIS2_PLACEMENT_3D ( 'NONE', #65, #33, #6 ) ;
#15 = CIRCLE ( 'NONE', #43, 15.00000000000000000 ) ;
#16 = AXIS2_PLACEMENT_3D ( 'NONE', #96, #105, #39 ) ;
#17 = CIRCLE ( 'NONE', #111, 15.00000000000000000 ) ;
#18 = FILL_AREA_STYLE ('',( #91 ) ) ;
#19 = STYLED_ITEM ( 'NONE', ( #25 ), #70 ) ;
#20 = CARTESIAN_POINT ( 'NONE',  ( 0.0000000000000000000, 0.0000000000000000000, 0.0000000000000000000 ) ) ;
#21 = DIRECTION ( 'NONE',  ( 1.000000000000000000, 1.084683744678891200E-030, 1.384229318661581700E-031 ) ) ;
#22 = FACE_OUTER_BOUND ( 'NONE', #73, .T. ) ;
#23 = PRODUCT_DEFINITION_SHAPE ( 'NONE', 'NONE',  #125 ) ;
#24 = AXIS2_PLACEMENT_3D ( 'NONE', #93, #41, #128 ) ;
#25 = PRESENTATION_STYLE_ASSIGNMENT (( #158 ) ) ;
#26 = FILL_AREA_STYLE ('',( #94 ) ) ;
#27 = ORIENTED_EDGE ( 'NONE', *, *, #10, .T. ) ;
#28 =( GEOMETRIC_REPRESENTATION_CONTEXT ( 3 ) GLOBAL_UNCERTAINTY_ASSIGNED_CONTEXT ( ( #57 ) ) GLOBAL_UNIT_ASSIGNED_CONTEXT ( ( #42, #155, #115 ) ) REPRESENTATION_CONTEXT ( 'NONE', 'WORKASPACE' ) );
#29 = PRESENTATION_STYLE_ASSIGNMENT (( #113 ) ) ;
#30 = EDGE_CURVE ( 'NONE', #117, #51, #74, .T. ) ;
#31 = CLOSED_SHELL ( 'NONE', ( #122, #3, #134, #137 ) ) ;
#32 = DIRECTION ( 'NONE',  ( 1.000000000000000000, 1.084683744678891200E-030, 1.384229318661581700E-031 ) ) ;
#33 = DIRECTION ( 'NONE',  ( 1.000000000000000000, 1.084683744678891200E-030, 1.384229318661581700E-031 ) ) ;
#34 = DIRECTION ( 'NONE',  ( 1.000000000000000000, 1.084683744678891200E-030, 1.384229318661581700E-031 ) ) ;
#35 = APPLICATION_PROTOCOL_DEFINITION ( 'draft international standard', 'automotive_design', 1998, #46 ) ;
#36 =( GEOMETRIC_REPRESENTATION_CONTEXT ( 3 ) GLOBAL_UNCERTAINTY_ASSIGNED_CONTEXT ( ( #142 ) ) GLOBAL_UNIT_ASSIGNED_CONTEXT ( ( #66, #154, #145 ) ) REPRESENTATION_CONTEXT ( 'NONE', 'WORKASPACE' ) );
#37 = PRODUCT ( 'A63.ER4.001.030', 'A63.ER4.001.030', '', ( #58 ) ) ;
#38 = CARTESIAN_POINT ( 'NONE',  ( -2.214766909858534900E-030, 1.959434878635767100E-015, 16.00000000000001800 ) ) ;
#39 = DIRECTION ( 'NONE',  ( 0.0000000000000000000, 1.224646799147349500E-016, 1.000000000000000000 ) ) ;
#40 = CARTESIAN_POINT ( 'NONE',  ( -6.123233995736767300E-017, -2.480325650965556300E-045, -15.00000000000003400 ) ) ;
#41 = DIRECTION ( 'NONE',  ( 1.000000000000000000, 1.084683744678891200E-030, 1.384229318661581700E-031 ) ) ;
#42 =( LENGTH_UNIT ( ) NAMED_UNIT ( * ) SI_UNIT ( .MILLI., .METRE. ) );
#43 = AXIS2_PLACEMENT_3D ( 'NONE', #78, #138, #7 ) ;
#44 = ORIENTED_EDGE ( 'NONE', *, *, #107, .T. ) ;
#45 = DIRECTION ( 'NONE',  ( 0.0000000000000000000, 0.0000000000000000000, 1.000000000000000000 ) ) ;
#46 = APPLICATION_CONTEXT ( 'automotive_design' ) ;
#47 = APPLICATION_CONTEXT ( 'automotive_design' ) ;
#48 = MECHANICAL_DESIGN_GEOMETRIC_PRESENTATION_REPRESENTATION (  '', ( #19 ), #98 ) ;
#49 = TOROIDAL_SURFACE ( 'NONE', #127, 15.50000000000000000, 0.5000000000000002200 ) ;
#50 = ORIENTED_EDGE ( 'NONE', *, *, #132, .F. ) ;
#51 = VERTEX_POINT ( 'NONE', #38 ) ;
#52 = CARTESIAN_POINT ( 'NONE',  ( -6.123233995736769700E-017, -6.641772380040848600E-047, -8.475960021924142500E-048 ) ) ;
#53 = CARTESIAN_POINT ( 'NONE',  ( -6.123233995736767300E-017, 1.836970198721033500E-015, 15.00000000000003400 ) ) ;
#54 = DIRECTION ( 'NONE',  ( -1.084940535338142800E-030, 1.000000000000000000, 0.0000000000000000000 ) ) ;
#55 = AXIS2_PLACEMENT_3D ( 'NONE', #20, #45, #130 ) ;
#56 =( NAMED_UNIT ( * ) PLANE_ANGLE_UNIT ( ) SI_UNIT ( $, .RADIAN. ) );
#57 = UNCERTAINTY_MEASURE_WITH_UNIT (LENGTH_MEASURE( 1.000000000000000100E-005 ), #42, 'distance_accuracy_value', 'NONE');
#58 = PRODUCT_CONTEXT ( 'NONE', #47, 'mechanical' ) ;
#59 = MECHANICAL_DESIGN_GEOMETRIC_PRESENTATION_REPRESENTATION (  '', ( #121 ), #28 ) ;
#60 = ORIENTED_EDGE ( 'NONE', *, *, #72, .F. ) ;
#61 =( NAMED_UNIT ( * ) SI_UNIT ( $, .STERADIAN. ) SOLID_ANGLE_UNIT ( ) );
#62 = AXIS2_PLACEMENT_3D ( 'NONE', #79, #102, #8 ) ;
#63 = SURFACE_STYLE_FILL_AREA ( #18 ) ;
#64 = CARTESIAN_POINT ( 'NONE',  ( -2.145555443925280400E-030, 0.0000000000000000000, -15.50000000000003400 ) ) ;
#65 = CARTESIAN_POINT ( 'NONE',  ( 0.0000000000000000000, 0.0000000000000000000, 0.0000000000000000000 ) ) ;
#66 =( LENGTH_UNIT ( ) NAMED_UNIT ( * ) SI_UNIT ( .MILLI., .METRE. ) );
#67 = SHAPE_DEFINITION_REPRESENTATION ( #23, #70 ) ;
#68 = CARTESIAN_POINT ( 'NONE',  ( 0.0000000000000000000, 0.0000000000000000000, 0.0000000000000000000 ) ) ;
#69 = PRODUCT_DEFINITION_CONTEXT ( 'detailed design', #46, 'design' ) ;
#70 = ADVANCED_BREP_SHAPE_REPRESENTATION ( 'A63.ER4.001.030', ( #131, #55 ), #36 ) ;
#71 = COLOUR_RGB ( '',0.0000000000000000000, 0.0000000000000000000, 0.0000000000000000000 ) ;
#72 = EDGE_CURVE ( 'NONE', #146, #88, #17, .T. ) ;
#73 = EDGE_LOOP ( 'NONE', ( #80, #153, #86, #1 ) ) ;
#74 = CIRCLE ( 'NONE', #123, 16.00000000000000000 ) ;
#75 = PRODUCT_RELATED_PRODUCT_CATEGORY ( 'part', '', ( #37 ) ) ;
#76 = CARTESIAN_POINT ( 'NONE',  ( 2.214766909858532800E-030, 4.804643330752302700E-060, -16.00000000000001800 ) ) ;
#77 = ORIENTED_EDGE ( 'NONE', *, *, #4, .T. ) ;
#78 = CARTESIAN_POINT ( 'NONE',  ( -6.123233995736769700E-017, -6.641772380040848600E-047, -8.475960021924142500E-048 ) ) ;
#79 = CARTESIAN_POINT ( 'NONE',  ( 2.145555443925278300E-030, 1.898202538678401900E-015, 15.50000000000003400 ) ) ;
#80 = ORIENTED_EDGE ( 'NONE', *, *, #10, .F. ) ;
#81 = AXIS2_PLACEMENT_3D ( 'NONE', #64, #151, #89 ) ;
#82 = FACE_OUTER_BOUND ( 'NONE', #106, .T. ) ;
#83 = EDGE_CURVE ( 'NONE', #88, #146, #15, .T. ) ;
#84 = ORIENTED_EDGE ( 'NONE', *, *, #72, .T. ) ;
#85 = PRESENTATION_LAYER_ASSIGNMENT (  '', '', ( #19 ) ) ;
#86 = ORIENTED_EDGE ( 'NONE', *, *, #132, .T. ) ;
#87 = SURFACE_STYLE_FILL_AREA ( #26 ) ;
#88 = VERTEX_POINT ( 'NONE', #40 ) ;
#89 = DIRECTION ( 'NONE',  ( 1.000000000000000000, 1.084683744678891200E-030, 0.0000000000000000000 ) ) ;
#90 = COLOUR_RGB ( '',0.7529411764705882200, 0.7529411764705882200, 0.7529411764705882200 ) ;
#91 = FILL_AREA_STYLE_COLOUR ( '', #71 ) ;
#92 = DIRECTION ( 'NONE',  ( 1.084683744678891200E-030, -1.000000000000000000, -1.501451040860031600E-061 ) ) ;
#93 = CARTESIAN_POINT ( 'NONE',  ( 0.0000000000000000000, 0.0000000000000000000, 0.0000000000000000000 ) ) ;
#94 = FILL_AREA_STYLE_COLOUR ( '', #90 ) ;
#95 = EDGE_LOOP ( 'NONE', ( #120, #150, #84, #77 ) ) ;
#96 = CARTESIAN_POINT ( 'NONE',  ( 2.145555443925278300E-030, 1.898202538678401900E-015, 15.50000000000003400 ) ) ;
#97 = TOROIDAL_SURFACE ( 'NONE', #5, 15.50000000000000000, 0.5000000000000002200 ) ;
#98 =( GEOMETRIC_REPRESENTATION_CONTEXT ( 3 ) GLOBAL_UNCERTAINTY_ASSIGNED_CONTEXT ( ( #99 ) ) GLOBAL_UNIT_ASSIGNED_CONTEXT ( ( #2, #56, #61 ) ) REPRESENTATION_CONTEXT ( 'NONE', 'WORKASPACE' ) );
#99 = UNCERTAINTY_MEASURE_WITH_UNIT (LENGTH_MEASURE( 1.000000000000000100E-005 ), #2, 'distance_accuracy_value', 'NONE');
#100 = CIRCLE ( 'NONE', #16, 0.5000000000000004400 ) ;
#101 = SURFACE_SIDE_STYLE ('',( #63 ) ) ;
#102 = DIRECTION ( 'NONE',  ( -1.084683744678891200E-030, 1.000000000000000000, -1.224646799147353200E-016 ) ) ;
#103 = CIRCLE ( 'NONE', #62, 0.5000000000000004400 ) ;
#104 = DIRECTION ( 'NONE',  ( -1.084683744678891200E-030, 1.000000000000000000, 0.0000000000000000000 ) ) ;
#105 = DIRECTION ( 'NONE',  ( -1.084683744678891200E-030, 1.000000000000000000, -1.224646799147353200E-016 ) ) ;
#106 = EDGE_LOOP ( 'NONE', ( #50, #44, #27, #60 ) ) ;
#107 = EDGE_CURVE ( 'NONE', #51, #117, #110, .T. ) ;
#108 = CIRCLE ( 'NONE', #116, 0.5000000000000002200 ) ;
#109 = FACE_OUTER_BOUND ( 'NONE', #114, .T. ) ;
#110 = CIRCLE ( 'NONE', #133, 16.00000000000000000 ) ;
#111 = AXIS2_PLACEMENT_3D ( 'NONE', #52, #157, #54 ) ;
#112 = CARTESIAN_POINT ( 'NONE',  ( -2.145555443925280400E-030, 0.0000000000000000000, -15.50000000000003400 ) ) ;
#113 = SURFACE_STYLE_USAGE ( .BOTH. , #101 ) ;
#114 = EDGE_LOOP ( 'NONE', ( #11, #156, #148, #135 ) ) ;
#115 =( NAMED_UNIT ( * ) SI_UNIT ( $, .STERADIAN. ) SOLID_ANGLE_UNIT ( ) );
#116 = AXIS2_PLACEMENT_3D ( 'NONE', #112, #92, #152 ) ;
#117 = VERTEX_POINT ( 'NONE', #76 ) ;
#118 = PRODUCT_DEFINITION_FORMATION_WITH_SPECIFIED_SOURCE ( 'ANY', '', #37, .NOT_KNOWN. ) ;
#119 = FACE_OUTER_BOUND ( 'NONE', #95, .T. ) ;
#120 = ORIENTED_EDGE ( 'NONE', *, *, #107, .F. ) ;
#121 = STYLED_ITEM ( 'NONE', ( #29 ), #131 ) ;
#122 = ADVANCED_FACE ( 'NONE', ( #82 ), #143, .T. ) ;
#123 = AXIS2_PLACEMENT_3D ( 'NONE', #68, #140, #104 ) ;
#124 = CARTESIAN_POINT ( 'NONE',  ( 0.0000000000000000000, 0.0000000000000000000, 0.0000000000000000000 ) ) ;
#125 = PRODUCT_DEFINITION ( 'UNKNOWN', '', #118, #69 ) ;
#126 = CARTESIAN_POINT ( 'NONE',  ( 0.0000000000000000000, 0.0000000000000000000, 0.0000000000000000000 ) ) ;
#127 = AXIS2_PLACEMENT_3D ( 'NONE', #124, #32, #136 ) ;
#128 = DIRECTION ( 'NONE',  ( 1.384229318661581700E-031, 3.002902081720186500E-061, -1.000000000000000000 ) ) ;
#129 = PRESENTATION_LAYER_ASSIGNMENT (  '', '', ( #121 ) ) ;
#130 = DIRECTION ( 'NONE',  ( 1.000000000000000000, 0.0000000000000000000, 0.0000000000000000000 ) ) ;
#131 = MANIFOLD_SOLID_BREP ( 'Rotation1', #31 ) ;
#132 = EDGE_CURVE ( 'NONE', #51, #146, #103, .T. ) ;
#133 = AXIS2_PLACEMENT_3D ( 'NONE', #126, #34, #139 ) ;
#134 = ADVANCED_FACE ( 'NONE', ( #109 ), #147, .T. ) ;
#135 = ORIENTED_EDGE ( 'NONE', *, *, #149, .T. ) ;
#136 = DIRECTION ( 'NONE',  ( 1.384229318661581700E-031, 3.002902081720186500E-061, -1.000000000000000000 ) ) ;
#137 = ADVANCED_FACE ( 'NONE', ( #119 ), #97, .T. ) ;
#138 = DIRECTION ( 'NONE',  ( 1.000000000000000000, 1.084683744678891200E-030, 1.384229318661581700E-031 ) ) ;
#139 = DIRECTION ( 'NONE',  ( -1.084683744678891200E-030, 1.000000000000000000, 0.0000000000000000000 ) ) ;
#140 = DIRECTION ( 'NONE',  ( 1.000000000000000000, 1.084683744678891200E-030, 1.384229318661581700E-031 ) ) ;
#141 = DIRECTION ( 'NONE',  ( 1.384229318661581700E-031, 3.002902081720186500E-061, -1.000000000000000000 ) ) ;
#142 = UNCERTAINTY_MEASURE_WITH_UNIT (LENGTH_MEASURE( 1.000000000000000100E-005 ), #66, 'distance_accuracy_value', 'NONE');
#143 = TOROIDAL_SURFACE ( 'NONE', #14, 15.50000000000000000, 0.5000000000000002200 ) ;
#144 = APPLICATION_PROTOCOL_DEFINITION ( 'draft international standard', 'automotive_design', 1998, #47 ) ;
#145 =( NAMED_UNIT ( * ) SI_UNIT ( $, .STERADIAN. ) SOLID_ANGLE_UNIT ( ) );
#146 = VERTEX_POINT ( 'NONE', #53 ) ;
#147 = TOROIDAL_SURFACE ( 'NONE', #24, 15.50000000000000000, 0.5000000000000002200 ) ;
#148 = ORIENTED_EDGE ( 'NONE', *, *, #83, .T. ) ;
#149 = EDGE_CURVE ( 'NONE', #146, #51, #100, .T. ) ;
#150 = ORIENTED_EDGE ( 'NONE', *, *, #149, .F. ) ;
#151 = DIRECTION ( 'NONE',  ( 1.084683744678891200E-030, -1.000000000000000000, -1.501451040860031600E-061 ) ) ;
#152 = DIRECTION ( 'NONE',  ( 1.000000000000000000, 1.084683744678891200E-030, 0.0000000000000000000 ) ) ;
#153 = ORIENTED_EDGE ( 'NONE', *, *, #30, .T. ) ;
#154 =( NAMED_UNIT ( * ) PLANE_ANGLE_UNIT ( ) SI_UNIT ( $, .RADIAN. ) );
#155 =( NAMED_UNIT ( * ) PLANE_ANGLE_UNIT ( ) SI_UNIT ( $, .RADIAN. ) );
#156 = ORIENTED_EDGE ( 'NONE', *, *, #4, .F. ) ;
#157 = DIRECTION ( 'NONE',  ( 1.000000000000000000, 1.084683744678891200E-030, 1.384229318661581700E-031 ) ) ;
#158 = SURFACE_STYLE_USAGE ( .BOTH. , #12 ) ;
ENDSEC;
END-ISO-10303-21;
