ISO-10303-21;
HEADER;
FILE_DESCRIPTION (( 'STEP AP214' ),
    '1' );
FILE_NAME ('841.142.940.STEP',
    '2024-06-19T08:31:30',
    ( '' ),
    ( '' ),
    'SwSTEP 2.0',
    'SolidWorks 2022',
    '' );
FILE_SCHEMA (( 'AUTOMOTIVE_DESIGN' ));
ENDSEC;

DATA;
#1 = CIRCLE ( 'NONE', #40, 17.00000000000000711 ) ;
#2 = ADVANCED_FACE ( 'NONE', ( #151, #134 ), #77, .T. ) ;
#3 = DIRECTION ( 'NONE',  ( 1.000000000000000000, -3.552998878918486142E-18, -2.457196376734882559E-16 ) ) ;
#4 = AXIS2_PLACEMENT_3D ( 'NONE', #54, #18, #125 ) ;
#5 = DIRECTION ( 'NONE',  ( 0.000000000000000000, 0.000000000000000000, 1.000000000000000000 ) ) ;
#6 = PRODUCT ( '841.142.940', '841.142.940', '', ( #43 ) ) ;
#7 = SURFACE_STYLE_FILL_AREA ( #78 ) ;
#8 = EDGE_CURVE ( 'NONE', #120, #95, #187, .T. ) ;
#9 = VERTEX_POINT ( 'NONE', #109 ) ;
#10 =( NAMED_UNIT ( * ) PLANE_ANGLE_UNIT ( ) SI_UNIT ( $, .RADIAN. ) );
#11 = AXIS2_PLACEMENT_3D ( 'NONE', #214, #194, #48 ) ;
#12 = DIRECTION ( 'NONE',  ( 1.913297951445007129E-16, -2.220446049250314067E-16, -1.000000000000000000 ) ) ;
#13 = CARTESIAN_POINT ( 'NONE',  ( 7.206746031746039449, -3.774758283725532237E-15, -17.00000000000000711 ) ) ;
#14 = EDGE_CURVE ( 'NONE', #9, #119, #24, .T. ) ;
#15 = ORIENTED_EDGE ( 'NONE', *, *, #14, .F. ) ;
#16 = PRODUCT_DEFINITION_FORMATION_WITH_SPECIFIED_SOURCE ( 'ANY', '', #6, .NOT_KNOWN. ) ;
#17 = ORIENTED_EDGE ( 'NONE', *, *, #137, .T. ) ;
#18 = DIRECTION ( 'NONE',  ( 1.000000000000000000, -3.552998878918486142E-18, -2.457196376734882559E-16 ) ) ;
#19 = CYLINDRICAL_SURFACE ( 'NONE', #11, 17.00000000000000711 ) ;
#20 = EDGE_CURVE ( 'NONE', #9, #31, #1, .T. ) ;
#21 = CIRCLE ( 'NONE', #161, 17.00000000000000711 ) ;
#22 = PLANE ( 'NONE',  #62 ) ;
#23 = DIRECTION ( 'NONE',  ( 1.000000000000000000, -3.552998878918486142E-18, -2.457196376734882559E-16 ) ) ;
#24 = LINE ( 'NONE', #91, #179 ) ;
#25 = FACE_OUTER_BOUND ( 'NONE', #46, .T. ) ;
#26 = EDGE_LOOP ( 'NONE', ( #17, #188 ) ) ;
#27 = STYLED_ITEM ( 'NONE', ( #56 ), #205 ) ;
#28 = EDGE_CURVE ( 'NONE', #31, #210, #57, .T. ) ;
#29 = ORIENTED_EDGE ( 'NONE', *, *, #128, .T. ) ;
#30 = ADVANCED_FACE ( 'NONE', ( #174, #138 ), #22, .T. ) ;
#31 = VERTEX_POINT ( 'NONE', #83 ) ;
#32 = ORIENTED_EDGE ( 'NONE', *, *, #107, .T. ) ;
#33 = CIRCLE ( 'NONE', #172, 17.00000000000000711 ) ;
#34 = FACE_OUTER_BOUND ( 'NONE', #189, .T. ) ;
#35 = FILL_AREA_STYLE_COLOUR ( '', #117 ) ;
#36 = CARTESIAN_POINT ( 'NONE',  ( 0.000000000000000000, 8.499999999999992895, 1.214306433183764966E-14 ) ) ;
#37 = PRESENTATION_LAYER_ASSIGNMENT (  '', '', ( #27 ) ) ;
#38 = DIRECTION ( 'NONE',  ( 1.968741186024066196E-16, -2.220446049250312095E-16, -1.000000000000000000 ) ) ;
#39 = SHAPE_DEFINITION_REPRESENTATION ( #165, #205 ) ;
#40 = AXIS2_PLACEMENT_3D ( 'NONE', #148, #204, #12 ) ;
#41 = SURFACE_STYLE_USAGE ( .BOTH. , #163 ) ;
#42 = EDGE_LOOP ( 'NONE', ( #169, #59 ) ) ;
#43 = PRODUCT_CONTEXT ( 'NONE', #176, 'mechanical' ) ;
#44 = ORIENTED_EDGE ( 'NONE', *, *, #140, .T. ) ;
#45 = DIRECTION ( 'NONE',  ( 2.040851148208007998E-16, -2.220446049250314560E-16, -1.000000000000000000 ) ) ;
#46 = EDGE_LOOP ( 'NONE', ( #206, #32, #92, #166 ) ) ;
#47 = EDGE_CURVE ( 'NONE', #95, #120, #116, .T. ) ;
#48 = DIRECTION ( 'NONE',  ( 2.040851148208007505E-16, -2.220446049250312095E-16, -1.000000000000000000 ) ) ;
#49 = CARTESIAN_POINT ( 'NONE',  ( -1.800000000000008260, -2.964295475749167963E-14, -8.500000000000001776 ) ) ;
#50 = AXIS2_PLACEMENT_3D ( 'NONE', #52, #66, #38 ) ;
#51 = ADVANCED_FACE ( 'NONE', ( #34 ), #158, .T. ) ;
#52 = CARTESIAN_POINT ( 'NONE',  ( 0.000000000000000000, 0.000000000000000000, 0.000000000000000000 ) ) ;
#53 = AXIS2_PLACEMENT_3D ( 'NONE', #186, #136, #80 ) ;
#54 = CARTESIAN_POINT ( 'NONE',  ( -1.800000000000010036, -2.775557561562891351E-14, 0.000000000000000000 ) ) ;
#55 =( NAMED_UNIT ( * ) SI_UNIT ( $, .STERADIAN. ) SOLID_ANGLE_UNIT ( ) );
#56 = PRESENTATION_STYLE_ASSIGNMENT (( #41 ) ) ;
#57 = LINE ( 'NONE', #13, #124 ) ;
#58 = CARTESIAN_POINT ( 'NONE',  ( -3.592033887666314563E-15, -3.774758283725532237E-15, -17.00000000000000711 ) ) ;
#59 = ORIENTED_EDGE ( 'NONE', *, *, #8, .T. ) ;
#60 = ORIENTED_EDGE ( 'NONE', *, *, #14, .T. ) ;
#61 = ADVANCED_FACE ( 'NONE', ( #111 ), #19, .T. ) ;
#62 = AXIS2_PLACEMENT_3D ( 'NONE', #36, #101, #102 ) ;
#63 = AXIS2_PLACEMENT_3D ( 'NONE', #94, #5, #149 ) ;
#64 = CARTESIAN_POINT ( 'NONE',  ( -1.800000000000010036, -2.775557561562891351E-14, 0.000000000000000000 ) ) ;
#65 = ORIENTED_EDGE ( 'NONE', *, *, #107, .F. ) ;
#66 = DIRECTION ( 'NONE',  ( 1.000000000000000000, -3.552998878918486142E-18, -2.457196376734882559E-16 ) ) ;
#67 = MANIFOLD_SOLID_BREP ( 'Rotation1', #98 ) ;
#68 = DIRECTION ( 'NONE',  ( 1.968741186024066196E-16, -2.220446049250312095E-16, -1.000000000000000000 ) ) ;
#69 = CARTESIAN_POINT ( 'NONE',  ( 7.206746031746037673, -1.887379141862766119E-15, -8.500000000000003553 ) ) ;
#70 = UNCERTAINTY_MEASURE_WITH_UNIT (LENGTH_MEASURE( 1.000000000000000082E-05 ), #200, 'distance_accuracy_value', 'NONE');
#71 = MECHANICAL_DESIGN_GEOMETRIC_PRESENTATION_REPRESENTATION (  '', ( #27 ), #199 ) ;
#72 = DIRECTION ( 'NONE',  ( 1.913297951445007129E-16, -2.220446049250314067E-16, -1.000000000000000000 ) ) ;
#73 = AXIS2_PLACEMENT_3D ( 'NONE', #90, #202, #164 ) ;
#74 = EDGE_CURVE ( 'NONE', #119, #210, #33, .T. ) ;
#75 = APPLICATION_PROTOCOL_DEFINITION ( 'draft international standard', 'automotive_design', 1998, #159 ) ;
#76 = DIRECTION ( 'NONE',  ( 2.040851148208007505E-16, -2.220446049250312095E-16, -1.000000000000000000 ) ) ;
#77 = PLANE ( 'NONE',  #53 ) ;
#78 = FILL_AREA_STYLE ('',( #201 ) ) ;
#79 = ORIENTED_EDGE ( 'NONE', *, *, #74, .F. ) ;
#80 = DIRECTION ( 'NONE',  ( -1.968741186024065949E-16, 2.220446049250312095E-16, 1.000000000000000000 ) ) ;
#81 = AXIS2_PLACEMENT_3D ( 'NONE', #146, #103, #76 ) ;
#82 = ORIENTED_EDGE ( 'NONE', *, *, #140, .F. ) ;
#83 = CARTESIAN_POINT ( 'NONE',  ( -1.800000000000006706, -3.153033389935445206E-14, -17.00000000000000711 ) ) ;
#84 = SURFACE_STYLE_FILL_AREA ( #198 ) ;
#85 = DIRECTION ( 'NONE',  ( 2.040851148208007505E-16, -2.220446049250312095E-16, -1.000000000000000000 ) ) ;
#86 = SURFACE_SIDE_STYLE ('',( #84 ) ) ;
#87 = VECTOR ( 'NONE', #127, 1000.000000000000000 ) ;
#88 = DIRECTION ( 'NONE',  ( 1.000000000000000000, -3.552998878918486142E-18, -2.457196376734882559E-16 ) ) ;
#89 = CYLINDRICAL_SURFACE ( 'NONE', #73, 8.500000000000003553 ) ;
#90 = CARTESIAN_POINT ( 'NONE',  ( 7.206746031746035897, 0.000000000000000000, 0.000000000000000000 ) ) ;
#91 = CARTESIAN_POINT ( 'NONE',  ( 7.206746031746033232, 5.856657842276036856E-15, 17.00000000000000711 ) ) ;
#92 = ORIENTED_EDGE ( 'NONE', *, *, #144, .T. ) ;
#93 = AXIS2_PLACEMENT_3D ( 'NONE', #145, #3, #72 ) ;
#94 = CARTESIAN_POINT ( 'NONE',  ( 0.000000000000000000, 0.000000000000000000, 0.000000000000000000 ) ) ;
#95 = VERTEX_POINT ( 'NONE', #49 ) ;
#96 = VERTEX_POINT ( 'NONE', #180 ) ;
#97 = ORIENTED_EDGE ( 'NONE', *, *, #47, .F. ) ;
#98 = CLOSED_SHELL ( 'NONE', ( #61, #178, #154, #30, #51, #2 ) ) ;
#99 = CARTESIAN_POINT ( 'NONE',  ( 7.206746031746035897, 0.000000000000000000, 0.000000000000000000 ) ) ;
#100 = DIRECTION ( 'NONE',  ( 1.968741186024066196E-16, -2.220446049250312095E-16, -1.000000000000000000 ) ) ;
#101 = DIRECTION ( 'NONE',  ( 1.000000000000000000, -3.552998878918387535E-18, 1.968741186024065949E-16 ) ) ;
#102 = DIRECTION ( 'NONE',  ( 1.968741186024065949E-16, -2.220446049250312095E-16, -1.000000000000000000 ) ) ;
#103 = DIRECTION ( 'NONE',  ( 1.000000000000000000, -3.552998878918486142E-18, -2.457196376734882559E-16 ) ) ;
#104 = ORIENTED_EDGE ( 'NONE', *, *, #28, .T. ) ;
#105 = CYLINDRICAL_SURFACE ( 'NONE', #81, 8.500000000000003553 ) ;
#106 = ORIENTED_EDGE ( 'NONE', *, *, #128, .F. ) ;
#107 = EDGE_CURVE ( 'NONE', #120, #96, #191, .T. ) ;
#108 = VERTEX_POINT ( 'NONE', #113 ) ;
#109 = CARTESIAN_POINT ( 'NONE',  ( -1.800000000000005818, 5.885461101838498507E-15, 17.00000000000000000 ) ) ;
#110 = EDGE_LOOP ( 'NONE', ( #44, #60, #147, #168 ) ) ;
#111 = FACE_OUTER_BOUND ( 'NONE', #110, .T. ) ;
#112 = EDGE_CURVE ( 'NONE', #95, #108, #175, .T. ) ;
#113 = CARTESIAN_POINT ( 'NONE',  ( 1.673430008120456907E-15, -1.887379141862766119E-15, -8.500000000000003553 ) ) ;
#114 = AXIS2_PLACEMENT_3D ( 'NONE', #99, #212, #85 ) ;
#115 = SURFACE_STYLE_USAGE ( .BOTH. , #86 ) ;
#116 = CIRCLE ( 'NONE', #4, 8.500000000000001776 ) ;
#117 = COLOUR_RGB ( '',0.6470588235294117974, 0.6196078431372549211, 0.5882352941176470784 ) ;
#118 =( NAMED_UNIT ( * ) SI_UNIT ( $, .STERADIAN. ) SOLID_ANGLE_UNIT ( ) );
#119 = VERTEX_POINT ( 'NONE', #193 ) ;
#120 = VERTEX_POINT ( 'NONE', #196 ) ;
#121 = COLOUR_RGB ( '',0.6470588235294117974, 0.6196078431372549211, 0.5882352941176470784 ) ;
#122 = DIRECTION ( 'NONE',  ( 1.000000000000000000, -3.552998878918486142E-18, -2.457196376734882559E-16 ) ) ;
#123 = EDGE_LOOP ( 'NONE', ( #82, #170 ) ) ;
#124 = VECTOR ( 'NONE', #162, 1000.000000000000000 ) ;
#125 = DIRECTION ( 'NONE',  ( 2.040851148208007998E-16, -2.220446049250314560E-16, -1.000000000000000000 ) ) ;
#126 = DIRECTION ( 'NONE',  ( 1.000000000000000000, -3.552998878918486142E-18, -2.457196376734882559E-16 ) ) ;
#127 = DIRECTION ( 'NONE',  ( 1.000000000000000000, -3.552998878918486142E-18, -2.457196376734882559E-16 ) ) ;
#128 = EDGE_CURVE ( 'NONE', #108, #96, #192, .T. ) ;
#129 = CARTESIAN_POINT ( 'NONE',  ( 0.000000000000000000, 0.000000000000000000, 0.000000000000000000 ) ) ;
#130 = DIRECTION ( 'NONE',  ( 1.968741186024066196E-16, -2.220446049250312095E-16, -1.000000000000000000 ) ) ;
#131 =( GEOMETRIC_REPRESENTATION_CONTEXT ( 3 ) GLOBAL_UNCERTAINTY_ASSIGNED_CONTEXT ( ( #195 ) ) GLOBAL_UNIT_ASSIGNED_CONTEXT ( ( #181, #10, #55 ) ) REPRESENTATION_CONTEXT ( 'NONE', 'WORKASPACE' ) );
#132 = DIRECTION ( 'NONE',  ( 1.000000000000000000, -3.552998878918486142E-18, -2.457196376734882559E-16 ) ) ;
#133 =( NAMED_UNIT ( * ) PLANE_ANGLE_UNIT ( ) SI_UNIT ( $, .RADIAN. ) );
#134 = FACE_OUTER_BOUND ( 'NONE', #123, .T. ) ;
#135 = CIRCLE ( 'NONE', #93, 17.00000000000000711 ) ;
#136 = DIRECTION ( 'NONE',  ( -1.000000000000000000, 3.552998878918387535E-18, -1.968741186024065949E-16 ) ) ;
#137 = EDGE_CURVE ( 'NONE', #210, #119, #21, .T. ) ;
#138 = FACE_BOUND ( 'NONE', #185, .T. ) ;
#139 = CARTESIAN_POINT ( 'NONE',  ( -6.938893903907228378E-15, 0.000000000000000000, 0.000000000000000000 ) ) ;
#140 = EDGE_CURVE ( 'NONE', #31, #9, #135, .T. ) ;
#141 = CARTESIAN_POINT ( 'NONE',  ( 7.206746031746035008, 2.928328921138018428E-15, 8.500000000000003553 ) ) ;
#142 = PRODUCT_RELATED_PRODUCT_CATEGORY ( 'part', '', ( #6 ) ) ;
#143 = PRESENTATION_LAYER_ASSIGNMENT (  '', '', ( #197 ) ) ;
#144 = EDGE_CURVE ( 'NONE', #96, #108, #156, .T. ) ;
#145 = CARTESIAN_POINT ( 'NONE',  ( -1.800000000000010036, -2.775557561562891351E-14, 0.000000000000000000 ) ) ;
#146 = CARTESIAN_POINT ( 'NONE',  ( 7.206746031746035897, 0.000000000000000000, 0.000000000000000000 ) ) ;
#147 = ORIENTED_EDGE ( 'NONE', *, *, #137, .F. ) ;
#148 = CARTESIAN_POINT ( 'NONE',  ( -1.800000000000010036, -2.775557561562891351E-14, 0.000000000000000000 ) ) ;
#149 = DIRECTION ( 'NONE',  ( 1.000000000000000000, 0.000000000000000000, 0.000000000000000000 ) ) ;
#150 = ORIENTED_EDGE ( 'NONE', *, *, #112, .T. ) ;
#151 = FACE_BOUND ( 'NONE', #42, .T. ) ;
#152 =( GEOMETRIC_REPRESENTATION_CONTEXT ( 3 ) GLOBAL_UNCERTAINTY_ASSIGNED_CONTEXT ( ( #160 ) ) GLOBAL_UNIT_ASSIGNED_CONTEXT ( ( #153, #171, #211 ) ) REPRESENTATION_CONTEXT ( 'NONE', 'WORKASPACE' ) );
#153 =( LENGTH_UNIT ( ) NAMED_UNIT ( * ) SI_UNIT ( .MILLI., .METRE. ) );
#154 = ADVANCED_FACE ( 'NONE', ( #183 ), #105, .F. ) ;
#155 = DIRECTION ( 'NONE',  ( 1.000000000000000000, -3.552998878918486142E-18, -2.457196376734882559E-16 ) ) ;
#156 = CIRCLE ( 'NONE', #203, 8.500000000000003553 ) ;
#157 = PRODUCT_DEFINITION_CONTEXT ( 'detailed design', #159, 'design' ) ;
#158 = CYLINDRICAL_SURFACE ( 'NONE', #114, 17.00000000000000711 ) ;
#159 = APPLICATION_CONTEXT ( 'automotive_design' ) ;
#160 = UNCERTAINTY_MEASURE_WITH_UNIT (LENGTH_MEASURE( 1.000000000000000082E-05 ), #153, 'distance_accuracy_value', 'NONE');
#161 = AXIS2_PLACEMENT_3D ( 'NONE', #173, #88, #100 ) ;
#162 = DIRECTION ( 'NONE',  ( 1.000000000000000000, -3.552998878918486142E-18, -2.457196376734882559E-16 ) ) ;
#163 = SURFACE_SIDE_STYLE ('',( #7 ) ) ;
#164 = DIRECTION ( 'NONE',  ( 2.040851148208007505E-16, -2.220446049250312095E-16, -1.000000000000000000 ) ) ;
#165 = PRODUCT_DEFINITION_SHAPE ( 'NONE', 'NONE',  #184 ) ;
#166 = ORIENTED_EDGE ( 'NONE', *, *, #112, .F. ) ;
#167 = AXIS2_PLACEMENT_3D ( 'NONE', #64, #122, #45 ) ;
#168 = ORIENTED_EDGE ( 'NONE', *, *, #28, .F. ) ;
#169 = ORIENTED_EDGE ( 'NONE', *, *, #47, .T. ) ;
#170 = ORIENTED_EDGE ( 'NONE', *, *, #20, .F. ) ;
#171 =( NAMED_UNIT ( * ) PLANE_ANGLE_UNIT ( ) SI_UNIT ( $, .RADIAN. ) );
#172 = AXIS2_PLACEMENT_3D ( 'NONE', #139, #126, #68 ) ;
#173 = CARTESIAN_POINT ( 'NONE',  ( -6.938893903907228378E-15, 0.000000000000000000, 0.000000000000000000 ) ) ;
#174 = FACE_OUTER_BOUND ( 'NONE', #26, .T. ) ;
#175 = LINE ( 'NONE', #69, #87 ) ;
#176 = APPLICATION_CONTEXT ( 'automotive_design' ) ;
#177 = MECHANICAL_DESIGN_GEOMETRIC_PRESENTATION_REPRESENTATION (  '', ( #197 ), #152 ) ;
#178 = ADVANCED_FACE ( 'NONE', ( #25 ), #89, .F. ) ;
#179 = VECTOR ( 'NONE', #132, 1000.000000000000000 ) ;
#180 = CARTESIAN_POINT ( 'NONE',  ( 2.088616920224668935E-15, 2.957132180700487967E-15, 8.500000000000000000 ) ) ;
#181 =( LENGTH_UNIT ( ) NAMED_UNIT ( * ) SI_UNIT ( .MILLI., .METRE. ) );
#182 = APPLICATION_PROTOCOL_DEFINITION ( 'draft international standard', 'automotive_design', 1998, #176 ) ;
#183 = FACE_OUTER_BOUND ( 'NONE', #209, .T. ) ;
#184 = PRODUCT_DEFINITION ( 'UNKNOWN', '', #16, #157 ) ;
#185 = EDGE_LOOP ( 'NONE', ( #106, #190 ) ) ;
#186 = CARTESIAN_POINT ( 'NONE',  ( -1.800000000000023803, 17.00000000000000000, 1.734723475976807094E-15 ) ) ;
#187 = CIRCLE ( 'NONE', #167, 8.500000000000001776 ) ;
#188 = ORIENTED_EDGE ( 'NONE', *, *, #74, .T. ) ;
#189 = EDGE_LOOP ( 'NONE', ( #15, #207, #104, #79 ) ) ;
#190 = ORIENTED_EDGE ( 'NONE', *, *, #144, .F. ) ;
#191 = LINE ( 'NONE', #141, #208 ) ;
#192 = CIRCLE ( 'NONE', #50, 8.500000000000003553 ) ;
#193 = CARTESIAN_POINT ( 'NONE',  ( -2.761660063457908651E-15, 5.885461101838505607E-15, 17.00000000000000000 ) ) ;
#194 = DIRECTION ( 'NONE',  ( 1.000000000000000000, -3.552998878918486142E-18, -2.457196376734882559E-16 ) ) ;
#195 = UNCERTAINTY_MEASURE_WITH_UNIT (LENGTH_MEASURE( 1.000000000000000082E-05 ), #181, 'distance_accuracy_value', 'NONE');
#196 = CARTESIAN_POINT ( 'NONE',  ( -1.800000000000007816, 2.957132180700470218E-15, 8.499999999999998224 ) ) ;
#197 = STYLED_ITEM ( 'NONE', ( #213 ), #67 ) ;
#198 = FILL_AREA_STYLE ('',( #35 ) ) ;
#199 =( GEOMETRIC_REPRESENTATION_CONTEXT ( 3 ) GLOBAL_UNCERTAINTY_ASSIGNED_CONTEXT ( ( #70 ) ) GLOBAL_UNIT_ASSIGNED_CONTEXT ( ( #200, #133, #118 ) ) REPRESENTATION_CONTEXT ( 'NONE', 'WORKASPACE' ) );
#200 =( LENGTH_UNIT ( ) NAMED_UNIT ( * ) SI_UNIT ( .MILLI., .METRE. ) );
#201 = FILL_AREA_STYLE_COLOUR ( '', #121 ) ;
#202 = DIRECTION ( 'NONE',  ( 1.000000000000000000, -3.552998878918486142E-18, -2.457196376734882559E-16 ) ) ;
#203 = AXIS2_PLACEMENT_3D ( 'NONE', #129, #23, #130 ) ;
#204 = DIRECTION ( 'NONE',  ( 1.000000000000000000, -3.552998878918486142E-18, -2.457196376734882559E-16 ) ) ;
#205 = ADVANCED_BREP_SHAPE_REPRESENTATION ( '841.142.940', ( #67, #63 ), #131 ) ;
#206 = ORIENTED_EDGE ( 'NONE', *, *, #8, .F. ) ;
#207 = ORIENTED_EDGE ( 'NONE', *, *, #20, .T. ) ;
#208 = VECTOR ( 'NONE', #155, 1000.000000000000000 ) ;
#209 = EDGE_LOOP ( 'NONE', ( #65, #97, #150, #29 ) ) ;
#210 = VERTEX_POINT ( 'NONE', #58 ) ;
#211 =( NAMED_UNIT ( * ) SI_UNIT ( $, .STERADIAN. ) SOLID_ANGLE_UNIT ( ) );
#212 = DIRECTION ( 'NONE',  ( 1.000000000000000000, -3.552998878918486142E-18, -2.457196376734882559E-16 ) ) ;
#213 = PRESENTATION_STYLE_ASSIGNMENT (( #115 ) ) ;
#214 = CARTESIAN_POINT ( 'NONE',  ( 7.206746031746035897, 0.000000000000000000, 0.000000000000000000 ) ) ;
ENDSEC;
END-ISO-10303-21;
