ISO-10303-21;
HEADER;
FILE_DESCRIPTION (( 'STEP AP214' ),
    '1' );
FILE_NAME ('841.142.720.STEP',
    '2024-06-19T09:35:19',
    ( '' ),
    ( '' ),
    'SwSTEP 2.0',
    'SolidWorks 2022',
    '' );
FILE_SCHEMA (( 'AUTOMOTIVE_DESIGN' ));
ENDSEC;

DATA;
#1 = DIRECTION ( 'NONE',  ( 1.000000000000000000, -0.000000000000000000, -0.000000000000000000 ) ) ;
#2 = ORIENTED_EDGE ( 'NONE', *, *, #178, .T. ) ;
#3 = AXIS2_PLACEMENT_3D ( 'NONE', #162, #43, #117 ) ;
#4 = ORIENTED_EDGE ( 'NONE', *, *, #58, .T. ) ;
#5 = EDGE_CURVE ( 'NONE', #169, #25, #132, .T. ) ;
#6 = ORIENTED_EDGE ( 'NONE', *, *, #62, .F. ) ;
#7 = CARTESIAN_POINT ( 'NONE',  ( -8.673617379884035472E-16, 0.000000000000000000, 0.000000000000000000 ) ) ;
#8 = APPLICATION_CONTEXT ( 'automotive_design' ) ;
#9 = ADVANCED_FACE ( 'NONE', ( #91, #161 ), #83, .T. ) ;
#10 = DIRECTION ( 'NONE',  ( 0.000000000000000000, 0.000000000000000000, -1.000000000000000000 ) ) ;
#11 = CARTESIAN_POINT ( 'NONE',  ( 0.000000000000000000, 0.000000000000000000, 0.000000000000000000 ) ) ;
#12 = DIRECTION ( 'NONE',  ( 1.000000000000000000, -0.000000000000000000, -0.000000000000000000 ) ) ;
#13 = CYLINDRICAL_SURFACE ( 'NONE', #100, 6.499999999999999112 ) ;
#14 = PRODUCT_DEFINITION ( 'UNKNOWN', '', #65, #207 ) ;
#15 = FACE_BOUND ( 'NONE', #126, .T. ) ;
#16 = VECTOR ( 'NONE', #1, 1000.000000000000000 ) ;
#17 = APPLICATION_CONTEXT ( 'automotive_design' ) ;
#18 = CIRCLE ( 'NONE', #84, 6.499999999999999112 ) ;
#19 = CLOSED_SHELL ( 'NONE', ( #150, #39, #102, #114, #72, #9 ) ) ;
#20 = ORIENTED_EDGE ( 'NONE', *, *, #138, .T. ) ;
#21 = VERTEX_POINT ( 'NONE', #113 ) ;
#22 = AXIS2_PLACEMENT_3D ( 'NONE', #61, #48, #189 ) ;
#23 = ORIENTED_EDGE ( 'NONE', *, *, #160, .F. ) ;
#24 = VERTEX_POINT ( 'NONE', #115 ) ;
#25 = VERTEX_POINT ( 'NONE', #64 ) ;
#26 = CIRCLE ( 'NONE', #93, 10.49999999999999822 ) ;
#27 = CARTESIAN_POINT ( 'NONE',  ( -0.9000000000000002442, 10.49999999999999822, 0.000000000000000000 ) ) ;
#28 = UNCERTAINTY_MEASURE_WITH_UNIT (LENGTH_MEASURE( 1.000000000000000082E-05 ), #134, 'distance_accuracy_value', 'NONE');
#29 = DIRECTION ( 'NONE',  ( 1.000000000000000000, -0.000000000000000000, -0.000000000000000000 ) ) ;
#30 = DIRECTION ( 'NONE',  ( 1.000000000000000000, -0.000000000000000000, -0.000000000000000000 ) ) ;
#31 = AXIS2_PLACEMENT_3D ( 'NONE', #191, #29, #176 ) ;
#32 = CARTESIAN_POINT ( 'NONE',  ( -0.8999999999999998002, 0.000000000000000000, 0.000000000000000000 ) ) ;
#33 = EDGE_CURVE ( 'NONE', #21, #169, #127, .T. ) ;
#34 = DIRECTION ( 'NONE',  ( 1.000000000000000000, -0.000000000000000000, -0.000000000000000000 ) ) ;
#35 = FILL_AREA_STYLE_COLOUR ( '', #41 ) ;
#36 = EDGE_CURVE ( 'NONE', #141, #21, #26, .T. ) ;
#37 =( LENGTH_UNIT ( ) NAMED_UNIT ( * ) SI_UNIT ( .MILLI., .METRE. ) );
#38 = EDGE_LOOP ( 'NONE', ( #23, #154, #2, #4 ) ) ;
#39 = ADVANCED_FACE ( 'NONE', ( #77 ), #13, .F. ) ;
#40 = EDGE_LOOP ( 'NONE', ( #181, #106, #199, #76 ) ) ;
#41 = COLOUR_RGB ( '',0.6470588235294117974, 0.6196078431372549211, 0.5882352941176470784 ) ;
#42 = DIRECTION ( 'NONE',  ( 0.000000000000000000, 0.000000000000000000, -1.000000000000000000 ) ) ;
#43 = DIRECTION ( 'NONE',  ( 1.000000000000000000, -0.000000000000000000, -0.000000000000000000 ) ) ;
#44 = EDGE_CURVE ( 'NONE', #166, #153, #214, .T. ) ;
#45 = COLOUR_RGB ( '',0.6470588235294117974, 0.6196078431372549211, 0.5882352941176470784 ) ;
#46 = DIRECTION ( 'NONE',  ( 0.000000000000000000, 0.000000000000000000, -1.000000000000000000 ) ) ;
#47 = FACE_OUTER_BOUND ( 'NONE', #202, .T. ) ;
#48 = DIRECTION ( 'NONE',  ( 1.000000000000000000, -0.000000000000000000, -0.000000000000000000 ) ) ;
#49 = DIRECTION ( 'NONE',  ( 0.000000000000000000, 0.000000000000000000, 1.000000000000000000 ) ) ;
#50 = CARTESIAN_POINT ( 'NONE',  ( -8.673617379884035472E-16, 1.285879139104720633E-15, 10.49999999999999822 ) ) ;
#51 = CIRCLE ( 'NONE', #149, 6.499999999999999112 ) ;
#52 = CARTESIAN_POINT ( 'NONE',  ( 7.206746031746035897, 0.000000000000000000, -6.499999999999999112 ) ) ;
#53 = APPLICATION_PROTOCOL_DEFINITION ( 'draft international standard', 'automotive_design', 1998, #8 ) ;
#54 = CIRCLE ( 'NONE', #196, 6.499999999999999112 ) ;
#55 = ORIENTED_EDGE ( 'NONE', *, *, #5, .T. ) ;
#56 = ORIENTED_EDGE ( 'NONE', *, *, #138, .F. ) ;
#57 = EDGE_LOOP ( 'NONE', ( #183, #140, #56, #184 ) ) ;
#58 = EDGE_CURVE ( 'NONE', #170, #24, #54, .T. ) ;
#59 = DIRECTION ( 'NONE',  ( -0.000000000000000000, 0.000000000000000000, -1.000000000000000000 ) ) ;
#60 = CARTESIAN_POINT ( 'NONE',  ( 7.206746031746035897, 1.285879139104720633E-15, 10.49999999999999822 ) ) ;
#61 = CARTESIAN_POINT ( 'NONE',  ( -8.673617379884035472E-16, 0.000000000000000000, 0.000000000000000000 ) ) ;
#62 = EDGE_CURVE ( 'NONE', #21, #141, #171, .T. ) ;
#63 = FACE_OUTER_BOUND ( 'NONE', #168, .T. ) ;
#64 = CARTESIAN_POINT ( 'NONE',  ( -8.673617379884035472E-16, 0.000000000000000000, -10.49999999999999822 ) ) ;
#65 = PRODUCT_DEFINITION_FORMATION_WITH_SPECIFIED_SOURCE ( 'ANY', '', #124, .NOT_KNOWN. ) ;
#66 = SURFACE_SIDE_STYLE ('',( #118 ) ) ;
#67 = VECTOR ( 'NONE', #111, 1000.000000000000000 ) ;
#68 = FILL_AREA_STYLE ('',( #35 ) ) ;
#69 = DIRECTION ( 'NONE',  ( 1.000000000000000000, 0.000000000000000000, 0.000000000000000000 ) ) ;
#70 = AXIS2_PLACEMENT_3D ( 'NONE', #120, #151, #69 ) ;
#71 = ORIENTED_EDGE ( 'NONE', *, *, #86, .F. ) ;
#72 = ADVANCED_FACE ( 'NONE', ( #47 ), #185, .T. ) ;
#73 = ORIENTED_EDGE ( 'NONE', *, *, #36, .F. ) ;
#74 = AXIS2_PLACEMENT_3D ( 'NONE', #142, #159, #59 ) ;
#75 = EDGE_CURVE ( 'NONE', #141, #25, #95, .T. ) ;
#76 = ORIENTED_EDGE ( 'NONE', *, *, #178, .F. ) ;
#77 = FACE_OUTER_BOUND ( 'NONE', #40, .T. ) ;
#78 = FACE_OUTER_BOUND ( 'NONE', #38, .T. ) ;
#79 = VECTOR ( 'NONE', #30, 1000.000000000000000 ) ;
#80 = CYLINDRICAL_SURFACE ( 'NONE', #107, 6.499999999999999112 ) ;
#81 = UNCERTAINTY_MEASURE_WITH_UNIT (LENGTH_MEASURE( 1.000000000000000082E-05 ), #193, 'distance_accuracy_value', 'NONE');
#82 = DIRECTION ( 'NONE',  ( -1.000000000000000000, 0.000000000000000000, 0.000000000000000000 ) ) ;
#83 = PLANE ( 'NONE',  #74 ) ;
#84 = AXIS2_PLACEMENT_3D ( 'NONE', #146, #130, #10 ) ;
#85 = CARTESIAN_POINT ( 'NONE',  ( 0.000000000000000000, 0.000000000000000000, -6.499999999999999112 ) ) ;
#86 = EDGE_CURVE ( 'NONE', #24, #170, #51, .T. ) ;
#87 = SURFACE_STYLE_USAGE ( .BOTH. , #66 ) ;
#88 = ORIENTED_EDGE ( 'NONE', *, *, #121, .T. ) ;
#89 = ORIENTED_EDGE ( 'NONE', *, *, #5, .F. ) ;
#90 = PRODUCT_DEFINITION_SHAPE ( 'NONE', 'NONE',  #14 ) ;
#91 = FACE_OUTER_BOUND ( 'NONE', #152, .T. ) ;
#92 = EDGE_LOOP ( 'NONE', ( #123, #71 ) ) ;
#93 = AXIS2_PLACEMENT_3D ( 'NONE', #145, #172, #128 ) ;
#94 = DIRECTION ( 'NONE',  ( 1.000000000000000000, -0.000000000000000000, -0.000000000000000000 ) ) ;
#95 = LINE ( 'NONE', #157, #79 ) ;
#96 = DIRECTION ( 'NONE',  ( 0.000000000000000000, 0.000000000000000000, -1.000000000000000000 ) ) ;
#97 = LINE ( 'NONE', #212, #16 ) ;
#98 = PLANE ( 'NONE',  #116 ) ;
#99 = SURFACE_SIDE_STYLE ('',( #147 ) ) ;
#100 = AXIS2_PLACEMENT_3D ( 'NONE', #204, #109, #46 ) ;
#101 =( NAMED_UNIT ( * ) PLANE_ANGLE_UNIT ( ) SI_UNIT ( $, .RADIAN. ) );
#102 = ADVANCED_FACE ( 'NONE', ( #78 ), #80, .F. ) ;
#103 = APPLICATION_PROTOCOL_DEFINITION ( 'draft international standard', 'automotive_design', 1998, #17 ) ;
#104 = MECHANICAL_DESIGN_GEOMETRIC_PRESENTATION_REPRESENTATION (  '', ( #119 ), #110 ) ;
#105 =( NAMED_UNIT ( * ) PLANE_ANGLE_UNIT ( ) SI_UNIT ( $, .RADIAN. ) );
#106 = ORIENTED_EDGE ( 'NONE', *, *, #160, .T. ) ;
#107 = AXIS2_PLACEMENT_3D ( 'NONE', #206, #143, #156 ) ;
#108 = ORIENTED_EDGE ( 'NONE', *, *, #62, .T. ) ;
#109 = DIRECTION ( 'NONE',  ( 1.000000000000000000, -0.000000000000000000, -0.000000000000000000 ) ) ;
#110 =( GEOMETRIC_REPRESENTATION_CONTEXT ( 3 ) GLOBAL_UNCERTAINTY_ASSIGNED_CONTEXT ( ( #81 ) ) GLOBAL_UNIT_ASSIGNED_CONTEXT ( ( #193, #101, #148 ) ) REPRESENTATION_CONTEXT ( 'NONE', 'WORKASPACE' ) );
#111 = DIRECTION ( 'NONE',  ( 1.000000000000000000, -0.000000000000000000, -0.000000000000000000 ) ) ;
#112 = ADVANCED_BREP_SHAPE_REPRESENTATION ( '841.142.720', ( #187, #70 ), #163 ) ;
#113 = CARTESIAN_POINT ( 'NONE',  ( -0.8999999999999998002, 1.285879139104720633E-15, 10.49999999999999822 ) ) ;
#114 = ADVANCED_FACE ( 'NONE', ( #15, #63 ), #98, .T. ) ;
#115 = CARTESIAN_POINT ( 'NONE',  ( 0.000000000000000000, 7.960204194457794491E-16, 6.499999999999999112 ) ) ;
#116 = AXIS2_PLACEMENT_3D ( 'NONE', #27, #82, #49 ) ;
#117 = DIRECTION ( 'NONE',  ( 0.000000000000000000, 0.000000000000000000, -1.000000000000000000 ) ) ;
#118 = SURFACE_STYLE_FILL_AREA ( #164 ) ;
#119 = STYLED_ITEM ( 'NONE', ( #135 ), #112 ) ;
#120 = CARTESIAN_POINT ( 'NONE',  ( 0.000000000000000000, 0.000000000000000000, 0.000000000000000000 ) ) ;
#121 = EDGE_CURVE ( 'NONE', #153, #166, #18, .T. ) ;
#122 = ORIENTED_EDGE ( 'NONE', *, *, #44, .T. ) ;
#123 = ORIENTED_EDGE ( 'NONE', *, *, #58, .F. ) ;
#124 = PRODUCT ( '841.142.720', '841.142.720', '', ( #198 ) ) ;
#125 =( GEOMETRIC_REPRESENTATION_CONTEXT ( 3 ) GLOBAL_UNCERTAINTY_ASSIGNED_CONTEXT ( ( #194 ) ) GLOBAL_UNIT_ASSIGNED_CONTEXT ( ( #37, #105, #211 ) ) REPRESENTATION_CONTEXT ( 'NONE', 'WORKASPACE' ) );
#126 = EDGE_LOOP ( 'NONE', ( #88, #122 ) ) ;
#127 = LINE ( 'NONE', #60, #67 ) ;
#128 = DIRECTION ( 'NONE',  ( 0.000000000000000000, 0.000000000000000000, -1.000000000000000000 ) ) ;
#129 = CARTESIAN_POINT ( 'NONE',  ( -0.8999999999999998002, 0.000000000000000000, -10.49999999999999822 ) ) ;
#130 = DIRECTION ( 'NONE',  ( 1.000000000000000000, -0.000000000000000000, -0.000000000000000000 ) ) ;
#131 = CARTESIAN_POINT ( 'NONE',  ( -0.8999999999999998002, 0.000000000000000000, 0.000000000000000000 ) ) ;
#132 = CIRCLE ( 'NONE', #139, 10.49999999999999822 ) ;
#133 = DIRECTION ( 'NONE',  ( 1.000000000000000000, -0.000000000000000000, -0.000000000000000000 ) ) ;
#134 =( LENGTH_UNIT ( ) NAMED_UNIT ( * ) SI_UNIT ( .MILLI., .METRE. ) );
#135 = PRESENTATION_STYLE_ASSIGNMENT (( #136 ) ) ;
#136 = SURFACE_STYLE_USAGE ( .BOTH. , #99 ) ;
#137 = ORIENTED_EDGE ( 'NONE', *, *, #33, .F. ) ;
#138 = EDGE_CURVE ( 'NONE', #25, #169, #209, .T. ) ;
#139 = AXIS2_PLACEMENT_3D ( 'NONE', #7, #155, #42 ) ;
#140 = ORIENTED_EDGE ( 'NONE', *, *, #33, .T. ) ;
#141 = VERTEX_POINT ( 'NONE', #129 ) ;
#142 = CARTESIAN_POINT ( 'NONE',  ( -4.336808689942017736E-16, 6.499999999999999112, 0.000000000000000000 ) ) ;
#143 = DIRECTION ( 'NONE',  ( 1.000000000000000000, -0.000000000000000000, -0.000000000000000000 ) ) ;
#144 = AXIS2_PLACEMENT_3D ( 'NONE', #131, #186, #205 ) ;
#145 = CARTESIAN_POINT ( 'NONE',  ( -0.8999999999999998002, 0.000000000000000000, 0.000000000000000000 ) ) ;
#146 = CARTESIAN_POINT ( 'NONE',  ( -0.8999999999999998002, 0.000000000000000000, 0.000000000000000000 ) ) ;
#147 = SURFACE_STYLE_FILL_AREA ( #68 ) ;
#148 =( NAMED_UNIT ( * ) SI_UNIT ( $, .STERADIAN. ) SOLID_ANGLE_UNIT ( ) );
#149 = AXIS2_PLACEMENT_3D ( 'NONE', #11, #34, #96 ) ;
#150 = ADVANCED_FACE ( 'NONE', ( #203 ), #188, .T. ) ;
#151 = DIRECTION ( 'NONE',  ( 0.000000000000000000, 0.000000000000000000, 1.000000000000000000 ) ) ;
#152 = EDGE_LOOP ( 'NONE', ( #20, #55 ) ) ;
#153 = VERTEX_POINT ( 'NONE', #175 ) ;
#154 = ORIENTED_EDGE ( 'NONE', *, *, #121, .F. ) ;
#155 = DIRECTION ( 'NONE',  ( 1.000000000000000000, -0.000000000000000000, -0.000000000000000000 ) ) ;
#156 = DIRECTION ( 'NONE',  ( 0.000000000000000000, 0.000000000000000000, -1.000000000000000000 ) ) ;
#157 = CARTESIAN_POINT ( 'NONE',  ( 7.206746031746035897, 0.000000000000000000, -10.49999999999999822 ) ) ;
#158 = STYLED_ITEM ( 'NONE', ( #179 ), #187 ) ;
#159 = DIRECTION ( 'NONE',  ( 1.000000000000000000, 0.000000000000000000, -0.000000000000000000 ) ) ;
#160 = EDGE_CURVE ( 'NONE', #166, #24, #97, .T. ) ;
#161 = FACE_BOUND ( 'NONE', #92, .T. ) ;
#162 = CARTESIAN_POINT ( 'NONE',  ( 7.206746031746035897, 0.000000000000000000, 0.000000000000000000 ) ) ;
#163 =( GEOMETRIC_REPRESENTATION_CONTEXT ( 3 ) GLOBAL_UNCERTAINTY_ASSIGNED_CONTEXT ( ( #28 ) ) GLOBAL_UNIT_ASSIGNED_CONTEXT ( ( #134, #210, #192 ) ) REPRESENTATION_CONTEXT ( 'NONE', 'WORKASPACE' ) );
#164 = FILL_AREA_STYLE ('',( #195 ) ) ;
#165 = MECHANICAL_DESIGN_GEOMETRIC_PRESENTATION_REPRESENTATION (  '', ( #158 ), #125 ) ;
#166 = VERTEX_POINT ( 'NONE', #197 ) ;
#167 = VECTOR ( 'NONE', #133, 1000.000000000000000 ) ;
#168 = EDGE_LOOP ( 'NONE', ( #73, #6 ) ) ;
#169 = VERTEX_POINT ( 'NONE', #50 ) ;
#170 = VERTEX_POINT ( 'NONE', #85 ) ;
#171 = CIRCLE ( 'NONE', #144, 10.49999999999999822 ) ;
#172 = DIRECTION ( 'NONE',  ( 1.000000000000000000, -0.000000000000000000, -0.000000000000000000 ) ) ;
#173 = CARTESIAN_POINT ( 'NONE',  ( 0.000000000000000000, 0.000000000000000000, 0.000000000000000000 ) ) ;
#174 = DIRECTION ( 'NONE',  ( 0.000000000000000000, 0.000000000000000000, -1.000000000000000000 ) ) ;
#175 = CARTESIAN_POINT ( 'NONE',  ( -0.8999999999999998002, 0.000000000000000000, -6.499999999999999112 ) ) ;
#176 = DIRECTION ( 'NONE',  ( 0.000000000000000000, 0.000000000000000000, -1.000000000000000000 ) ) ;
#177 = PRESENTATION_LAYER_ASSIGNMENT (  '', '', ( #158 ) ) ;
#178 = EDGE_CURVE ( 'NONE', #153, #170, #213, .T. ) ;
#179 = PRESENTATION_STYLE_ASSIGNMENT (( #87 ) ) ;
#180 = SHAPE_DEFINITION_REPRESENTATION ( #90, #112 ) ;
#181 = ORIENTED_EDGE ( 'NONE', *, *, #44, .F. ) ;
#182 = ORIENTED_EDGE ( 'NONE', *, *, #75, .T. ) ;
#183 = ORIENTED_EDGE ( 'NONE', *, *, #36, .T. ) ;
#184 = ORIENTED_EDGE ( 'NONE', *, *, #75, .F. ) ;
#185 = CYLINDRICAL_SURFACE ( 'NONE', #31, 10.49999999999999822 ) ;
#186 = DIRECTION ( 'NONE',  ( 1.000000000000000000, -0.000000000000000000, -0.000000000000000000 ) ) ;
#187 = MANIFOLD_SOLID_BREP ( 'Rotation1', #19 ) ;
#188 = CYLINDRICAL_SURFACE ( 'NONE', #3, 10.49999999999999822 ) ;
#189 = DIRECTION ( 'NONE',  ( 0.000000000000000000, 0.000000000000000000, -1.000000000000000000 ) ) ;
#190 = PRESENTATION_LAYER_ASSIGNMENT (  '', '', ( #119 ) ) ;
#191 = CARTESIAN_POINT ( 'NONE',  ( 7.206746031746035897, 0.000000000000000000, 0.000000000000000000 ) ) ;
#192 =( NAMED_UNIT ( * ) SI_UNIT ( $, .STERADIAN. ) SOLID_ANGLE_UNIT ( ) );
#193 =( LENGTH_UNIT ( ) NAMED_UNIT ( * ) SI_UNIT ( .MILLI., .METRE. ) );
#194 = UNCERTAINTY_MEASURE_WITH_UNIT (LENGTH_MEASURE( 1.000000000000000082E-05 ), #37, 'distance_accuracy_value', 'NONE');
#195 = FILL_AREA_STYLE_COLOUR ( '', #45 ) ;
#196 = AXIS2_PLACEMENT_3D ( 'NONE', #173, #94, #208 ) ;
#197 = CARTESIAN_POINT ( 'NONE',  ( -0.8999999999999998002, 7.960204194457794491E-16, 6.499999999999999112 ) ) ;
#198 = PRODUCT_CONTEXT ( 'NONE', #17, 'mechanical' ) ;
#199 = ORIENTED_EDGE ( 'NONE', *, *, #86, .T. ) ;
#200 = AXIS2_PLACEMENT_3D ( 'NONE', #32, #12, #174 ) ;
#201 = PRODUCT_RELATED_PRODUCT_CATEGORY ( 'part', '', ( #124 ) ) ;
#202 = EDGE_LOOP ( 'NONE', ( #137, #108, #182, #89 ) ) ;
#203 = FACE_OUTER_BOUND ( 'NONE', #57, .T. ) ;
#204 = CARTESIAN_POINT ( 'NONE',  ( 7.206746031746035897, 0.000000000000000000, 0.000000000000000000 ) ) ;
#205 = DIRECTION ( 'NONE',  ( 0.000000000000000000, 0.000000000000000000, -1.000000000000000000 ) ) ;
#206 = CARTESIAN_POINT ( 'NONE',  ( 7.206746031746035897, 0.000000000000000000, 0.000000000000000000 ) ) ;
#207 = PRODUCT_DEFINITION_CONTEXT ( 'detailed design', #8, 'design' ) ;
#208 = DIRECTION ( 'NONE',  ( 0.000000000000000000, 0.000000000000000000, -1.000000000000000000 ) ) ;
#209 = CIRCLE ( 'NONE', #22, 10.49999999999999822 ) ;
#210 =( NAMED_UNIT ( * ) PLANE_ANGLE_UNIT ( ) SI_UNIT ( $, .RADIAN. ) );
#211 =( NAMED_UNIT ( * ) SI_UNIT ( $, .STERADIAN. ) SOLID_ANGLE_UNIT ( ) );
#212 = CARTESIAN_POINT ( 'NONE',  ( 7.206746031746035897, 7.960204194457794491E-16, 6.499999999999999112 ) ) ;
#213 = LINE ( 'NONE', #52, #167 ) ;
#214 = CIRCLE ( 'NONE', #200, 6.499999999999999112 ) ;
ENDSEC;
END-ISO-10303-21;
