ISO-10303-21;
HEADER;
FILE_DESCRIPTION (( 'STEP AP214' ),
    '1' );
FILE_NAME ('841.142.420C.STEP',
    '2024-06-19T12:06:45',
    ( '' ),
    ( '' ),
    'SwSTEP 2.0',
    'SolidWorks 2022',
    '' );
FILE_SCHEMA (( 'AUTOMOTIVE_DESIGN' ));
ENDSEC;

DATA;
#1 =( NAMED_UNIT ( * ) SI_UNIT ( $, .STERADIAN. ) SOLID_ANGLE_UNIT ( ) );
#2 = DIRECTION ( 'NONE',  ( 1.000000000000000000, -4.259385939352627576E-17, -1.112428321272187978E-17 ) ) ;
#3 = FACE_BOUND ( 'NONE', #91, .T. ) ;
#4 = CIRCLE ( 'NONE', #67, 7.000000000000002665 ) ;
#5 = AXIS2_PLACEMENT_3D ( 'NONE', #121, #2, #113 ) ;
#6 =( NAMED_UNIT ( * ) PLANE_ANGLE_UNIT ( ) SI_UNIT ( $, .RADIAN. ) );
#7 = DIRECTION ( 'NONE',  ( 1.000000000000000000, 0.000000000000000000, 0.000000000000000000 ) ) ;
#8 = FACE_OUTER_BOUND ( 'NONE', #84, .T. ) ;
#9 = APPLICATION_PROTOCOL_DEFINITION ( 'draft international standard', 'automotive_design', 1998, #164 ) ;
#10 = DIRECTION ( 'NONE',  ( 1.000000000000000000, -4.259385939352627576E-17, -1.112428321272187978E-17 ) ) ;
#11 = AXIS2_PLACEMENT_3D ( 'NONE', #90, #138, #7 ) ;
#12 = ORIENTED_EDGE ( 'NONE', *, *, #116, .F. ) ;
#13 = APPLICATION_CONTEXT ( 'automotive_design' ) ;
#14 = DIRECTION ( 'NONE',  ( 1.000000000000000000, -4.259385939352627576E-17, -1.112428321272187978E-17 ) ) ;
#15 = DIRECTION ( 'NONE',  ( 1.000000000000000000, -4.259385939352627576E-17, -1.112428321272187978E-17 ) ) ;
#16 = DIRECTION ( 'NONE',  ( 1.000000000000000000, -4.259385939352627576E-17, -1.112428321272187978E-17 ) ) ;
#17 = DIRECTION ( 'NONE',  ( -2.065146995210483709E-16, -1.665334536937734071E-16, -1.000000000000000000 ) ) ;
#18 = CARTESIAN_POINT ( 'NONE',  ( -0.5500000000000018208, 7.000000000000004441, 0.000000000000000000 ) ) ;
#19 = CIRCLE ( 'NONE', #81, 4.200000000000001954 ) ;
#20 = DIRECTION ( 'NONE',  ( -1.960049020799458264E-16, -1.665334536937734071E-16, -1.000000000000000000 ) ) ;
#21 = ADVANCED_FACE ( 'NONE', ( #161 ), #25, .T. ) ;
#22 =( GEOMETRIC_REPRESENTATION_CONTEXT ( 3 ) GLOBAL_UNCERTAINTY_ASSIGNED_CONTEXT ( ( #40 ) ) GLOBAL_UNIT_ASSIGNED_CONTEXT ( ( #150, #66, #1 ) ) REPRESENTATION_CONTEXT ( 'NONE', 'WORKASPACE' ) );
#23 = CARTESIAN_POINT ( 'NONE',  ( -0.5499999999999949374, 1.040834085586084257E-14, 1.387778780781445676E-14 ) ) ;
#24 = CARTESIAN_POINT ( 'NONE',  ( 7.206746031746035897, -6.938893903907228378E-15, -1.387778780781445676E-14 ) ) ;
#25 = CYLINDRICAL_SURFACE ( 'NONE', #189, 7.000000000000002665 ) ;
#26 = SURFACE_STYLE_USAGE ( .BOTH. , #199 ) ;
#27 = FACE_OUTER_BOUND ( 'NONE', #94, .T. ) ;
#28 = UNCERTAINTY_MEASURE_WITH_UNIT (LENGTH_MEASURE( 1.000000000000000082E-05 ), #93, 'distance_accuracy_value', 'NONE');
#29 = STYLED_ITEM ( 'NONE', ( #184 ), #70 ) ;
#30 = DIRECTION ( 'NONE',  ( -1.960049020799458264E-16, -1.665334536937733825E-16, -1.000000000000000000 ) ) ;
#31 = FACE_OUTER_BOUND ( 'NONE', #141, .T. ) ;
#32 = VERTEX_POINT ( 'NONE', #144 ) ;
#33 = ORIENTED_EDGE ( 'NONE', *, *, #131, .T. ) ;
#34 = FILL_AREA_STYLE ('',( #52 ) ) ;
#35 = MECHANICAL_DESIGN_GEOMETRIC_PRESENTATION_REPRESENTATION (  '', ( #29 ), #130 ) ;
#36 = DIRECTION ( 'NONE',  ( -2.013518320330221746E-16, -1.665334536937733332E-16, -1.000000000000000000 ) ) ;
#37 =( LENGTH_UNIT ( ) NAMED_UNIT ( * ) SI_UNIT ( .MILLI., .METRE. ) );
#38 = FILL_AREA_STYLE_COLOUR ( '', #101 ) ;
#39 = SURFACE_STYLE_FILL_AREA ( #122 ) ;
#40 = UNCERTAINTY_MEASURE_WITH_UNIT (LENGTH_MEASURE( 1.000000000000000082E-05 ), #150, 'distance_accuracy_value', 'NONE');
#41 = ORIENTED_EDGE ( 'NONE', *, *, #103, .T. ) ;
#42 =( GEOMETRIC_REPRESENTATION_CONTEXT ( 3 ) GLOBAL_UNCERTAINTY_ASSIGNED_CONTEXT ( ( #111 ) ) GLOBAL_UNIT_ASSIGNED_CONTEXT ( ( #37, #154, #69 ) ) REPRESENTATION_CONTEXT ( 'NONE', 'WORKASPACE' ) );
#43 = ADVANCED_FACE ( 'NONE', ( #165 ), #163, .T. ) ;
#44 = CARTESIAN_POINT ( 'NONE',  ( 4.672198949343247993E-17, -5.406425304257242326E-15, 4.200000000000000178 ) ) ;
#45 = CARTESIAN_POINT ( 'NONE',  ( 7.206746031746035897, -7.638334409421076683E-15, -4.200000000000016165 ) ) ;
#46 = DIRECTION ( 'NONE',  ( 1.960049020799458264E-16, 1.665334536937734071E-16, 1.000000000000000000 ) ) ;
#47 = LINE ( 'NONE', #45, #97 ) ;
#48 = COLOUR_RGB ( '',0.7529411764705882248, 0.7529411764705882248, 0.7529411764705882248 ) ;
#49 = VERTEX_POINT ( 'NONE', #157 ) ;
#50 = EDGE_LOOP ( 'NONE', ( #68, #198, #133, #58 ) ) ;
#51 = EDGE_CURVE ( 'NONE', #179, #85, #19, .T. ) ;
#52 = FILL_AREA_STYLE_COLOUR ( '', #48 ) ;
#53 = ORIENTED_EDGE ( 'NONE', *, *, #116, .T. ) ;
#54 = ORIENTED_EDGE ( 'NONE', *, *, #155, .F. ) ;
#55 = VECTOR ( 'NONE', #65, 1000.000000000000000 ) ;
#56 = CYLINDRICAL_SURFACE ( 'NONE', #5, 4.200000000000001954 ) ;
#57 = PRODUCT ( '841.142.420C', '841.142.420C', '', ( #178 ) ) ;
#58 = ORIENTED_EDGE ( 'NONE', *, *, #194, .F. ) ;
#59 = DIRECTION ( 'NONE',  ( -2.478176394252580648E-16, -1.665334536937733332E-16, -1.000000000000000000 ) ) ;
#60 = CARTESIAN_POINT ( 'NONE',  ( -0.5499999999999958256, 9.708900350346994262E-15, -4.199999999999987743 ) ) ;
#61 = PRODUCT_DEFINITION ( 'UNKNOWN', '', #76, #79 ) ;
#62 = CARTESIAN_POINT ( 'NONE',  ( 0.000000000000000000, 0.000000000000000000, 0.000000000000000000 ) ) ;
#63 = AXIS2_PLACEMENT_3D ( 'NONE', #62, #16, #30 ) ;
#64 = CLOSED_SHELL ( 'NONE', ( #43, #119, #100, #151, #21, #126 ) ) ;
#65 = DIRECTION ( 'NONE',  ( 1.000000000000000000, -4.259385939352627576E-17, -1.112428321272187978E-17 ) ) ;
#66 =( NAMED_UNIT ( * ) PLANE_ANGLE_UNIT ( ) SI_UNIT ( $, .RADIAN. ) );
#67 = AXIS2_PLACEMENT_3D ( 'NONE', #23, #88, #36 ) ;
#68 = ORIENTED_EDGE ( 'NONE', *, *, #208, .T. ) ;
#69 =( NAMED_UNIT ( * ) SI_UNIT ( $, .STERADIAN. ) SOLID_ANGLE_UNIT ( ) );
#70 = MANIFOLD_SOLID_BREP ( 'Rotation1', #64 ) ;
#71 = DIRECTION ( 'NONE',  ( -2.065146995210484202E-16, -1.665334536937734318E-16, -1.000000000000000000 ) ) ;
#72 = DIRECTION ( 'NONE',  ( -2.478176394252580648E-16, -1.665334536937733332E-16, -1.000000000000000000 ) ) ;
#73 = ORIENTED_EDGE ( 'NONE', *, *, #204, .F. ) ;
#74 = ORIENTED_EDGE ( 'NONE', *, *, #155, .T. ) ;
#75 = DIRECTION ( 'NONE',  ( -2.013518320330221746E-16, -1.665334536937733332E-16, -1.000000000000000000 ) ) ;
#76 = PRODUCT_DEFINITION_FORMATION_WITH_SPECIFIED_SOURCE ( 'ANY', '', #57, .NOT_KNOWN. ) ;
#77 = EDGE_CURVE ( 'NONE', #49, #177, #115, .T. ) ;
#78 = CARTESIAN_POINT ( 'NONE',  ( 0.000000000000000000, 0.000000000000000000, 0.000000000000000000 ) ) ;
#79 = PRODUCT_DEFINITION_CONTEXT ( 'detailed design', #13, 'design' ) ;
#80 = DIRECTION ( 'NONE',  ( 1.000000000000000000, -4.259385939352627576E-17, -1.112428321272187978E-17 ) ) ;
#81 = AXIS2_PLACEMENT_3D ( 'NONE', #107, #123, #181 ) ;
#82 = CARTESIAN_POINT ( 'NONE',  ( -0.5499999999999949374, 1.040834085586084257E-14, 1.387778780781445676E-14 ) ) ;
#83 = EDGE_CURVE ( 'NONE', #104, #192, #4, .T. ) ;
#84 = EDGE_LOOP ( 'NONE', ( #206, #152, #53, #74 ) ) ;
#85 = VERTEX_POINT ( 'NONE', #105 ) ;
#86 = CIRCLE ( 'NONE', #162, 7.000000000000002665 ) ;
#87 = PRESENTATION_STYLE_ASSIGNMENT (( #102 ) ) ;
#88 = DIRECTION ( 'NONE',  ( 1.000000000000000000, -4.259385939352627576E-17, -1.112428321272187978E-17 ) ) ;
#89 = ORIENTED_EDGE ( 'NONE', *, *, #51, .T. ) ;
#90 = CARTESIAN_POINT ( 'NONE',  ( 0.000000000000000000, 0.000000000000000000, 0.000000000000000000 ) ) ;
#91 = EDGE_LOOP ( 'NONE', ( #173, #211 ) ) ;
#92 = CIRCLE ( 'NONE', #210, 4.200000000000001066 ) ;
#93 =( LENGTH_UNIT ( ) NAMED_UNIT ( * ) SI_UNIT ( .MILLI., .METRE. ) );
#94 = EDGE_LOOP ( 'NONE', ( #190, #41, #89, #12 ) ) ;
#95 = FACE_BOUND ( 'NONE', #209, .T. ) ;
#96 = DIRECTION ( 'NONE',  ( -1.000000000000000000, 4.259385939352631274E-17, 1.960049020799458264E-16 ) ) ;
#97 = VECTOR ( 'NONE', #186, 1000.000000000000000 ) ;
#98 = DIRECTION ( 'NONE',  ( 1.000000000000000000, -4.259385939352631274E-17, -1.960049020799458264E-16 ) ) ;
#99 = CARTESIAN_POINT ( 'NONE',  ( 7.206746031746036785, -5.725101742751490399E-15, 4.199999999999988631 ) ) ;
#100 = ADVANCED_FACE ( 'NONE', ( #8 ), #56, .F. ) ;
#101 = COLOUR_RGB ( '',0.7529411764705882248, 0.7529411764705882248, 0.7529411764705882248 ) ;
#102 = SURFACE_STYLE_USAGE ( .BOTH. , #136 ) ;
#103 = EDGE_CURVE ( 'NONE', #49, #179, #169, .T. ) ;
#104 = VERTEX_POINT ( 'NONE', #185 ) ;
#105 = CARTESIAN_POINT ( 'NONE',  ( -8.232205887357729786E-16, -6.994405055138486994E-16, -4.200000000000001954 ) ) ;
#106 = VERTEX_POINT ( 'NONE', #214 ) ;
#107 = CARTESIAN_POINT ( 'NONE',  ( 0.000000000000000000, 0.000000000000000000, 0.000000000000000000 ) ) ;
#108 = CIRCLE ( 'NONE', #196, 4.200000000000001954 ) ;
#109 = PLANE ( 'NONE',  #167 ) ;
#110 = CARTESIAN_POINT ( 'NONE',  ( 0.000000000000000000, 0.000000000000000000, 0.000000000000000000 ) ) ;
#111 = UNCERTAINTY_MEASURE_WITH_UNIT (LENGTH_MEASURE( 1.000000000000000082E-05 ), #37, 'distance_accuracy_value', 'NONE');
#112 = CARTESIAN_POINT ( 'NONE',  ( -0.5499999999999963807, 9.242606680004428199E-15, -6.999999999999988454 ) ) ;
#113 = DIRECTION ( 'NONE',  ( -2.065146995210483709E-16, -1.665334536937734071E-16, -1.000000000000000000 ) ) ;
#114 = LINE ( 'NONE', #149, #55 ) ;
#115 = CIRCLE ( 'NONE', #134, 4.200000000000001066 ) ;
#116 = EDGE_CURVE ( 'NONE', #177, #85, #47, .T. ) ;
#117 = EDGE_LOOP ( 'NONE', ( #73, #212, #193, #139 ) ) ;
#118 = SHAPE_DEFINITION_REPRESENTATION ( #180, #156 ) ;
#119 = ADVANCED_FACE ( 'NONE', ( #27 ), #127, .F. ) ;
#120 = VECTOR ( 'NONE', #201, 1000.000000000000000 ) ;
#121 = CARTESIAN_POINT ( 'NONE',  ( 7.206746031746035897, -6.938893903907228378E-15, -1.387778780781445676E-14 ) ) ;
#122 = FILL_AREA_STYLE ('',( #38 ) ) ;
#123 = DIRECTION ( 'NONE',  ( 1.000000000000000000, -4.259385939352627576E-17, -1.112428321272187978E-17 ) ) ;
#124 = AXIS2_PLACEMENT_3D ( 'NONE', #18, #96, #46 ) ;
#125 =( NAMED_UNIT ( * ) SI_UNIT ( $, .STERADIAN. ) SOLID_ANGLE_UNIT ( ) );
#126 = ADVANCED_FACE ( 'NONE', ( #3, #171 ), #202, .T. ) ;
#127 = CYLINDRICAL_SURFACE ( 'NONE', #182, 4.200000000000001954 ) ;
#128 = DIRECTION ( 'NONE',  ( -1.960049020799458264E-16, -1.665334536937733825E-16, -1.000000000000000000 ) ) ;
#129 = DIRECTION ( 'NONE',  ( 1.000000000000000000, -4.259385939352627576E-17, -1.112428321272187978E-17 ) ) ;
#130 =( GEOMETRIC_REPRESENTATION_CONTEXT ( 3 ) GLOBAL_UNCERTAINTY_ASSIGNED_CONTEXT ( ( #28 ) ) GLOBAL_UNIT_ASSIGNED_CONTEXT ( ( #93, #6, #125 ) ) REPRESENTATION_CONTEXT ( 'NONE', 'WORKASPACE' ) );
#131 = EDGE_CURVE ( 'NONE', #106, #32, #191, .T. ) ;
#132 = LINE ( 'NONE', #188, #213 ) ;
#133 = ORIENTED_EDGE ( 'NONE', *, *, #183, .F. ) ;
#134 = AXIS2_PLACEMENT_3D ( 'NONE', #159, #175, #71 ) ;
#135 = ORIENTED_EDGE ( 'NONE', *, *, #208, .F. ) ;
#136 = SURFACE_SIDE_STYLE ('',( #140 ) ) ;
#137 = CIRCLE ( 'NONE', #153, 7.000000000000002665 ) ;
#138 = DIRECTION ( 'NONE',  ( 0.000000000000000000, 0.000000000000000000, 1.000000000000000000 ) ) ;
#139 = ORIENTED_EDGE ( 'NONE', *, *, #131, .F. ) ;
#140 = SURFACE_STYLE_FILL_AREA ( #34 ) ;
#141 = EDGE_LOOP ( 'NONE', ( #195, #33 ) ) ;
#142 = PRESENTATION_LAYER_ASSIGNMENT (  '', '', ( #145 ) ) ;
#143 = CARTESIAN_POINT ( 'NONE',  ( 7.206746031746035897, -6.938893903907228378E-15, -1.387778780781445676E-14 ) ) ;
#144 = CARTESIAN_POINT ( 'NONE',  ( -1.372034314559621302E-15, -1.165734175856414170E-15, -7.000000000000002665 ) ) ;
#145 = STYLED_ITEM ( 'NONE', ( #87 ), #156 ) ;
#146 = DIRECTION ( 'NONE',  ( 1.000000000000000000, -4.259385939352627576E-17, -1.112428321272187978E-17 ) ) ;
#147 = CARTESIAN_POINT ( 'NONE',  ( -0.5499999999999949374, 1.040834085586084257E-14, 1.387778780781445676E-14 ) ) ;
#148 = AXIS2_PLACEMENT_3D ( 'NONE', #143, #14, #59 ) ;
#149 = CARTESIAN_POINT ( 'NONE',  ( 7.206746031746035008, -8.104628079763642745E-15, -7.000000000000016875 ) ) ;
#150 =( LENGTH_UNIT ( ) NAMED_UNIT ( * ) SI_UNIT ( .MILLI., .METRE. ) );
#151 = ADVANCED_FACE ( 'NONE', ( #31, #95 ), #109, .T. ) ;
#152 = ORIENTED_EDGE ( 'NONE', *, *, #172, .F. ) ;
#153 = AXIS2_PLACEMENT_3D ( 'NONE', #110, #80, #128 ) ;
#154 =( NAMED_UNIT ( * ) PLANE_ANGLE_UNIT ( ) SI_UNIT ( $, .RADIAN. ) );
#155 = EDGE_CURVE ( 'NONE', #85, #179, #108, .T. ) ;
#156 = ADVANCED_BREP_SHAPE_REPRESENTATION ( '841.142.420C', ( #70, #11 ), #22 ) ;
#157 = CARTESIAN_POINT ( 'NONE',  ( -0.5499999999999949374, -5.406425304257322790E-15, 4.200000000000013500 ) ) ;
#158 = PRODUCT_RELATED_PRODUCT_CATEGORY ( 'part', '', ( #57 ) ) ;
#159 = CARTESIAN_POINT ( 'NONE',  ( -0.5499999999999949374, 1.040834085586084257E-14, 1.387778780781445676E-14 ) ) ;
#160 = APPLICATION_PROTOCOL_DEFINITION ( 'draft international standard', 'automotive_design', 1998, #13 ) ;
#161 = FACE_OUTER_BOUND ( 'NONE', #117, .T. ) ;
#162 = AXIS2_PLACEMENT_3D ( 'NONE', #147, #203, #75 ) ;
#163 = CYLINDRICAL_SURFACE ( 'NONE', #148, 7.000000000000002665 ) ;
#164 = APPLICATION_CONTEXT ( 'automotive_design' ) ;
#165 = FACE_OUTER_BOUND ( 'NONE', #50, .T. ) ;
#166 = CARTESIAN_POINT ( 'NONE',  ( 6.938893903907228378E-15, 4.200000000000001954, 1.387778780781445676E-14 ) ) ;
#167 = AXIS2_PLACEMENT_3D ( 'NONE', #166, #98, #20 ) ;
#168 = DIRECTION ( 'NONE',  ( 1.000000000000000000, -4.259385939352627576E-17, -1.112428321272187978E-17 ) ) ;
#169 = LINE ( 'NONE', #99, #120 ) ;
#170 = DIRECTION ( 'NONE',  ( -2.065146995210484202E-16, -1.665334536937734318E-16, -1.000000000000000000 ) ) ;
#171 = FACE_OUTER_BOUND ( 'NONE', #174, .T. ) ;
#172 = EDGE_CURVE ( 'NONE', #177, #49, #92, .T. ) ;
#173 = ORIENTED_EDGE ( 'NONE', *, *, #172, .T. ) ;
#174 = EDGE_LOOP ( 'NONE', ( #135, #197 ) ) ;
#175 = DIRECTION ( 'NONE',  ( 1.000000000000000000, -4.259385939352627576E-17, -1.112428321272187978E-17 ) ) ;
#176 = MECHANICAL_DESIGN_GEOMETRIC_PRESENTATION_REPRESENTATION (  '', ( #145 ), #42 ) ;
#177 = VERTEX_POINT ( 'NONE', #60 ) ;
#178 = PRODUCT_CONTEXT ( 'NONE', #164, 'mechanical' ) ;
#179 = VERTEX_POINT ( 'NONE', #44 ) ;
#180 = PRODUCT_DEFINITION_SHAPE ( 'NONE', 'NONE',  #61 ) ;
#181 = DIRECTION ( 'NONE',  ( -1.960049020799458510E-16, -1.665334536937734318E-16, -1.000000000000000000 ) ) ;
#182 = AXIS2_PLACEMENT_3D ( 'NONE', #187, #168, #17 ) ;
#183 = EDGE_CURVE ( 'NONE', #32, #106, #137, .T. ) ;
#184 = PRESENTATION_STYLE_ASSIGNMENT (( #26 ) ) ;
#185 = CARTESIAN_POINT ( 'NONE',  ( -0.5499999999999948264, -4.597230530153453032E-15, 7.000000000000014211 ) ) ;
#186 = DIRECTION ( 'NONE',  ( 1.000000000000000000, -4.259385939352627576E-17, -1.112428321272187978E-17 ) ) ;
#187 = CARTESIAN_POINT ( 'NONE',  ( 7.206746031746035897, -6.938893903907228378E-15, -1.387778780781445676E-14 ) ) ;
#188 = CARTESIAN_POINT ( 'NONE',  ( 7.206746031746037673, -4.915906968647666395E-15, 6.999999999999988454 ) ) ;
#189 = AXIS2_PLACEMENT_3D ( 'NONE', #24, #10, #72 ) ;
#190 = ORIENTED_EDGE ( 'NONE', *, *, #77, .F. ) ;
#191 = CIRCLE ( 'NONE', #63, 7.000000000000002665 ) ;
#192 = VERTEX_POINT ( 'NONE', #112 ) ;
#193 = ORIENTED_EDGE ( 'NONE', *, *, #194, .T. ) ;
#194 = EDGE_CURVE ( 'NONE', #192, #32, #114, .T. ) ;
#195 = ORIENTED_EDGE ( 'NONE', *, *, #183, .T. ) ;
#196 = AXIS2_PLACEMENT_3D ( 'NONE', #78, #129, #205 ) ;
#197 = ORIENTED_EDGE ( 'NONE', *, *, #83, .F. ) ;
#198 = ORIENTED_EDGE ( 'NONE', *, *, #204, .T. ) ;
#199 = SURFACE_SIDE_STYLE ('',( #39 ) ) ;
#200 = PRESENTATION_LAYER_ASSIGNMENT (  '', '', ( #29 ) ) ;
#201 = DIRECTION ( 'NONE',  ( 1.000000000000000000, -4.259385939352627576E-17, -1.112428321272187978E-17 ) ) ;
#202 = PLANE ( 'NONE',  #124 ) ;
#203 = DIRECTION ( 'NONE',  ( 1.000000000000000000, -4.259385939352627576E-17, -1.112428321272187978E-17 ) ) ;
#204 = EDGE_CURVE ( 'NONE', #104, #106, #132, .T. ) ;
#205 = DIRECTION ( 'NONE',  ( -1.960049020799458510E-16, -1.665334536937734318E-16, -1.000000000000000000 ) ) ;
#206 = ORIENTED_EDGE ( 'NONE', *, *, #103, .F. ) ;
#207 = ORIENTED_EDGE ( 'NONE', *, *, #51, .F. ) ;
#208 = EDGE_CURVE ( 'NONE', #192, #104, #86, .T. ) ;
#209 = EDGE_LOOP ( 'NONE', ( #54, #207 ) ) ;
#210 = AXIS2_PLACEMENT_3D ( 'NONE', #82, #146, #170 ) ;
#211 = ORIENTED_EDGE ( 'NONE', *, *, #77, .T. ) ;
#212 = ORIENTED_EDGE ( 'NONE', *, *, #83, .T. ) ;
#213 = VECTOR ( 'NONE', #15, 1000.000000000000000 ) ;
#214 = CARTESIAN_POINT ( 'NONE',  ( 7.786998248905429550E-17, -4.597230530153409644E-15, 7.000000000000000000 ) ) ;
ENDSEC;
END-ISO-10303-21;
