ISO-10303-21;
HEADER;
FILE_DESCRIPTION (( 'STEP AP214' ),
    '1' );
FILE_NAME ('841.142.420.STEP',
    '2024-06-19T12:05:58',
    ( '' ),
    ( '' ),
    'SwSTEP 2.0',
    'SolidWorks 2022',
    '' );
FILE_SCHEMA (( 'AUTOMOTIVE_DESIGN' ));
ENDSEC;

DATA;
#1 = PRESENTATION_STYLE_ASSIGNMENT (( #91 ) ) ;
#2 = DIRECTION ( 'NONE',  ( 1.000000000000000000, -4.259385939352627576E-17, -1.112428321272187978E-17 ) ) ;
#3 = SURFACE_STYLE_FILL_AREA ( #53 ) ;
#4 = FACE_OUTER_BOUND ( 'NONE', #89, .T. ) ;
#5 = PRODUCT_DEFINITION_FORMATION_WITH_SPECIFIED_SOURCE ( 'ANY', '', #78, .NOT_KNOWN. ) ;
#6 = APPLICATION_PROTOCOL_DEFINITION ( 'draft international standard', 'automotive_design', 1998, #63 ) ;
#7 = ORIENTED_EDGE ( 'NONE', *, *, #189, .F. ) ;
#8 = CARTESIAN_POINT ( 'NONE',  ( 7.206746031746035897, -6.938893903907228378E-15, -1.387778780781445676E-14 ) ) ;
#9 = EDGE_LOOP ( 'NONE', ( #50, #212, #129, #7 ) ) ;
#10 = DIRECTION ( 'NONE',  ( -1.960049020799458510E-16, -1.665334536937734318E-16, -1.000000000000000000 ) ) ;
#11 = PRODUCT_CONTEXT ( 'NONE', #87, 'mechanical' ) ;
#12 = ORIENTED_EDGE ( 'NONE', *, *, #33, .F. ) ;
#13 = CARTESIAN_POINT ( 'NONE',  ( 0.000000000000000000, 0.000000000000000000, 0.000000000000000000 ) ) ;
#14 = LINE ( 'NONE', #47, #213 ) ;
#15 = AXIS2_PLACEMENT_3D ( 'NONE', #70, #68, #193 ) ;
#16 = CARTESIAN_POINT ( 'NONE',  ( -0.5500000000000018208, 7.000000000000004441, 0.000000000000000000 ) ) ;
#17 = DIRECTION ( 'NONE',  ( -1.000000000000000000, 4.259385939352631274E-17, 1.960049020799458264E-16 ) ) ;
#18 = MECHANICAL_DESIGN_GEOMETRIC_PRESENTATION_REPRESENTATION (  '', ( #48 ), #142 ) ;
#19 = DIRECTION ( 'NONE',  ( 1.000000000000000000, -4.259385939352627576E-17, -1.112428321272187978E-17 ) ) ;
#20 = CIRCLE ( 'NONE', #143, 7.000000000000002665 ) ;
#21 = SURFACE_STYLE_USAGE ( .BOTH. , #61 ) ;
#22 = SURFACE_STYLE_FILL_AREA ( #138 ) ;
#23 = ADVANCED_BREP_SHAPE_REPRESENTATION ( '841.142.420', ( #152, #41 ), #175 ) ;
#24 = AXIS2_PLACEMENT_3D ( 'NONE', #191, #147, #214 ) ;
#25 = ORIENTED_EDGE ( 'NONE', *, *, #163, .F. ) ;
#26 = VERTEX_POINT ( 'NONE', #69 ) ;
#27 = FACE_BOUND ( 'NONE', #100, .T. ) ;
#28 = PRESENTATION_LAYER_ASSIGNMENT (  '', '', ( #48 ) ) ;
#29 =( GEOMETRIC_REPRESENTATION_CONTEXT ( 3 ) GLOBAL_UNCERTAINTY_ASSIGNED_CONTEXT ( ( #208 ) ) GLOBAL_UNIT_ASSIGNED_CONTEXT ( ( #133, #57, #93 ) ) REPRESENTATION_CONTEXT ( 'NONE', 'WORKASPACE' ) );
#30 = DIRECTION ( 'NONE',  ( -2.065146995210484202E-16, -1.665334536937734318E-16, -1.000000000000000000 ) ) ;
#31 = CARTESIAN_POINT ( 'NONE',  ( -0.5499999999999948264, -4.597230530153453032E-15, 7.000000000000014211 ) ) ;
#32 = AXIS2_PLACEMENT_3D ( 'NONE', #106, #2, #72 ) ;
#33 = EDGE_CURVE ( 'NONE', #26, #114, #182, .T. ) ;
#34 = CARTESIAN_POINT ( 'NONE',  ( -0.5499999999999949374, -5.406425304257322790E-15, 4.200000000000013500 ) ) ;
#35 = FACE_OUTER_BOUND ( 'NONE', #62, .T. ) ;
#36 = CYLINDRICAL_SURFACE ( 'NONE', #137, 4.200000000000001954 ) ;
#37 = PRODUCT_DEFINITION_CONTEXT ( 'detailed design', #63, 'design' ) ;
#38 = DIRECTION ( 'NONE',  ( 0.000000000000000000, 0.000000000000000000, 1.000000000000000000 ) ) ;
#39 = DIRECTION ( 'NONE',  ( -2.065146995210483709E-16, -1.665334536937734071E-16, -1.000000000000000000 ) ) ;
#40 = EDGE_CURVE ( 'NONE', #127, #158, #14, .T. ) ;
#41 = AXIS2_PLACEMENT_3D ( 'NONE', #64, #38, #155 ) ;
#42 = MECHANICAL_DESIGN_GEOMETRIC_PRESENTATION_REPRESENTATION (  '', ( #117 ), #29 ) ;
#43 = DIRECTION ( 'NONE',  ( 1.000000000000000000, -4.259385939352627576E-17, -1.112428321272187978E-17 ) ) ;
#44 = ORIENTED_EDGE ( 'NONE', *, *, #40, .F. ) ;
#45 = EDGE_LOOP ( 'NONE', ( #141, #66 ) ) ;
#46 = PRODUCT_RELATED_PRODUCT_CATEGORY ( 'part', '', ( #78 ) ) ;
#47 = CARTESIAN_POINT ( 'NONE',  ( 7.206746031746036785, -5.725101742751490399E-15, 4.199999999999988631 ) ) ;
#48 = STYLED_ITEM ( 'NONE', ( #77 ), #23 ) ;
#49 = ORIENTED_EDGE ( 'NONE', *, *, #33, .T. ) ;
#50 = ORIENTED_EDGE ( 'NONE', *, *, #67, .F. ) ;
#51 = EDGE_LOOP ( 'NONE', ( #128, #161, #112, #171 ) ) ;
#52 = CARTESIAN_POINT ( 'NONE',  ( 7.206746031746037673, -4.915906968647666395E-15, 6.999999999999988454 ) ) ;
#53 = FILL_AREA_STYLE ('',( #200 ) ) ;
#54 = CARTESIAN_POINT ( 'NONE',  ( 4.672198949343247993E-17, -5.406425304257242326E-15, 4.200000000000000178 ) ) ;
#55 = DIRECTION ( 'NONE',  ( 1.000000000000000000, -4.259385939352627576E-17, -1.112428321272187978E-17 ) ) ;
#56 = VECTOR ( 'NONE', #55, 1000.000000000000000 ) ;
#57 =( NAMED_UNIT ( * ) PLANE_ANGLE_UNIT ( ) SI_UNIT ( $, .RADIAN. ) );
#58 = EDGE_CURVE ( 'NONE', #83, #158, #146, .T. ) ;
#59 = CARTESIAN_POINT ( 'NONE',  ( 7.206746031746035897, -7.638334409421076683E-15, -4.200000000000016165 ) ) ;
#60 = UNCERTAINTY_MEASURE_WITH_UNIT (LENGTH_MEASURE( 1.000000000000000082E-05 ), #111, 'distance_accuracy_value', 'NONE');
#61 = SURFACE_SIDE_STYLE ('',( #22 ) ) ;
#62 = EDGE_LOOP ( 'NONE', ( #49, #139, #80, #25 ) ) ;
#63 = APPLICATION_CONTEXT ( 'automotive_design' ) ;
#64 = CARTESIAN_POINT ( 'NONE',  ( 0.000000000000000000, 0.000000000000000000, 0.000000000000000000 ) ) ;
#65 = VECTOR ( 'NONE', #19, 1000.000000000000000 ) ;
#66 = ORIENTED_EDGE ( 'NONE', *, *, #189, .T. ) ;
#67 = EDGE_CURVE ( 'NONE', #114, #205, #130, .T. ) ;
#68 = DIRECTION ( 'NONE',  ( 1.000000000000000000, -4.259385939352627576E-17, -1.112428321272187978E-17 ) ) ;
#69 = CARTESIAN_POINT ( 'NONE',  ( -0.5499999999999963807, 9.242606680004428199E-15, -6.999999999999988454 ) ) ;
#70 = CARTESIAN_POINT ( 'NONE',  ( 0.000000000000000000, 0.000000000000000000, 0.000000000000000000 ) ) ;
#71 = CARTESIAN_POINT ( 'NONE',  ( -0.5499999999999958256, 9.708900350346994262E-15, -4.199999999999987743 ) ) ;
#72 = DIRECTION ( 'NONE',  ( -2.065146995210484202E-16, -1.665334536937734318E-16, -1.000000000000000000 ) ) ;
#73 = PRODUCT_DEFINITION_SHAPE ( 'NONE', 'NONE',  #184 ) ;
#74 = CYLINDRICAL_SURFACE ( 'NONE', #75, 7.000000000000002665 ) ;
#75 = AXIS2_PLACEMENT_3D ( 'NONE', #151, #149, #132 ) ;
#76 = FACE_OUTER_BOUND ( 'NONE', #136, .T. ) ;
#77 = PRESENTATION_STYLE_ASSIGNMENT (( #21 ) ) ;
#78 = PRODUCT ( '841.142.420', '841.142.420', '', ( #11 ) ) ;
#79 = FILL_AREA_STYLE_COLOUR ( '', #84 ) ;
#80 = ORIENTED_EDGE ( 'NONE', *, *, #109, .F. ) ;
#81 = ORIENTED_EDGE ( 'NONE', *, *, #192, .T. ) ;
#82 =( NAMED_UNIT ( * ) SI_UNIT ( $, .STERADIAN. ) SOLID_ANGLE_UNIT ( ) );
#83 = VERTEX_POINT ( 'NONE', #115 ) ;
#84 = COLOUR_RGB ( '',0.7529411764705882248, 0.7529411764705882248, 0.7529411764705882248 ) ;
#85 = CIRCLE ( 'NONE', #194, 4.200000000000001066 ) ;
#86 = CARTESIAN_POINT ( 'NONE',  ( -1.372034314559621302E-15, -1.165734175856414170E-15, -7.000000000000002665 ) ) ;
#87 = APPLICATION_CONTEXT ( 'automotive_design' ) ;
#88 = ORIENTED_EDGE ( 'NONE', *, *, #169, .F. ) ;
#89 = EDGE_LOOP ( 'NONE', ( #12, #88 ) ) ;
#90 = DIRECTION ( 'NONE',  ( 1.000000000000000000, -4.259385939352627576E-17, -1.112428321272187978E-17 ) ) ;
#91 = SURFACE_STYLE_USAGE ( .BOTH. , #166 ) ;
#92 = DIRECTION ( 'NONE',  ( 1.000000000000000000, -4.259385939352627576E-17, -1.112428321272187978E-17 ) ) ;
#93 =( NAMED_UNIT ( * ) SI_UNIT ( $, .STERADIAN. ) SOLID_ANGLE_UNIT ( ) );
#94 = DIRECTION ( 'NONE',  ( 1.000000000000000000, -4.259385939352627576E-17, -1.112428321272187978E-17 ) ) ;
#95 = AXIS2_PLACEMENT_3D ( 'NONE', #148, #94, #135 ) ;
#96 = DIRECTION ( 'NONE',  ( 1.000000000000000000, -4.259385939352627576E-17, -1.112428321272187978E-17 ) ) ;
#97 = ADVANCED_FACE ( 'NONE', ( #116, #27 ), #178, .T. ) ;
#98 = VERTEX_POINT ( 'NONE', #86 ) ;
#99 = CLOSED_SHELL ( 'NONE', ( #124, #201, #154, #97, #160, #177 ) ) ;
#100 = EDGE_LOOP ( 'NONE', ( #145, #174 ) ) ;
#101 =( NAMED_UNIT ( * ) SI_UNIT ( $, .STERADIAN. ) SOLID_ANGLE_UNIT ( ) );
#102 = ORIENTED_EDGE ( 'NONE', *, *, #173, .T. ) ;
#103 = AXIS2_PLACEMENT_3D ( 'NONE', #204, #96, #10 ) ;
#104 = AXIS2_PLACEMENT_3D ( 'NONE', #185, #92, #181 ) ;
#105 = LINE ( 'NONE', #150, #65 ) ;
#106 = CARTESIAN_POINT ( 'NONE',  ( -0.5499999999999949374, 1.040834085586084257E-14, 1.387778780781445676E-14 ) ) ;
#107 = DIRECTION ( 'NONE',  ( -1.960049020799458264E-16, -1.665334536937733825E-16, -1.000000000000000000 ) ) ;
#108 = CIRCLE ( 'NONE', #32, 4.200000000000001066 ) ;
#109 = EDGE_CURVE ( 'NONE', #98, #205, #121, .T. ) ;
#110 = UNCERTAINTY_MEASURE_WITH_UNIT (LENGTH_MEASURE( 1.000000000000000082E-05 ), #126, 'distance_accuracy_value', 'NONE');
#111 =( LENGTH_UNIT ( ) NAMED_UNIT ( * ) SI_UNIT ( .MILLI., .METRE. ) );
#112 = ORIENTED_EDGE ( 'NONE', *, *, #211, .T. ) ;
#113 = CIRCLE ( 'NONE', #103, 4.200000000000001954 ) ;
#114 = VERTEX_POINT ( 'NONE', #31 ) ;
#115 = CARTESIAN_POINT ( 'NONE',  ( -8.232205887357729786E-16, -6.994405055138486994E-16, -4.200000000000001954 ) ) ;
#116 = FACE_OUTER_BOUND ( 'NONE', #45, .T. ) ;
#117 = STYLED_ITEM ( 'NONE', ( #1 ), #152 ) ;
#118 = CYLINDRICAL_SURFACE ( 'NONE', #153, 7.000000000000002665 ) ;
#119 = DIRECTION ( 'NONE',  ( 1.000000000000000000, -4.259385939352627576E-17, -1.112428321272187978E-17 ) ) ;
#120 = FACE_BOUND ( 'NONE', #131, .T. ) ;
#121 = CIRCLE ( 'NONE', #172, 7.000000000000002665 ) ;
#122 = PLANE ( 'NONE',  #179 ) ;
#123 = APPLICATION_PROTOCOL_DEFINITION ( 'draft international standard', 'automotive_design', 1998, #87 ) ;
#124 = ADVANCED_FACE ( 'NONE', ( #35 ), #74, .T. ) ;
#125 = CARTESIAN_POINT ( 'NONE',  ( 7.786998248905429550E-17, -4.597230530153409644E-15, 7.000000000000000000 ) ) ;
#126 =( LENGTH_UNIT ( ) NAMED_UNIT ( * ) SI_UNIT ( .MILLI., .METRE. ) );
#127 = VERTEX_POINT ( 'NONE', #34 ) ;
#128 = ORIENTED_EDGE ( 'NONE', *, *, #192, .F. ) ;
#129 = ORIENTED_EDGE ( 'NONE', *, *, #163, .T. ) ;
#130 = LINE ( 'NONE', #52, #207 ) ;
#131 = EDGE_LOOP ( 'NONE', ( #188, #81 ) ) ;
#132 = DIRECTION ( 'NONE',  ( -2.478176394252580648E-16, -1.665334536937733332E-16, -1.000000000000000000 ) ) ;
#133 =( LENGTH_UNIT ( ) NAMED_UNIT ( * ) SI_UNIT ( .MILLI., .METRE. ) );
#134 = PRESENTATION_LAYER_ASSIGNMENT (  '', '', ( #117 ) ) ;
#135 = DIRECTION ( 'NONE',  ( -2.013518320330221746E-16, -1.665334536937733332E-16, -1.000000000000000000 ) ) ;
#136 = EDGE_LOOP ( 'NONE', ( #44, #206, #102, #156 ) ) ;
#137 = AXIS2_PLACEMENT_3D ( 'NONE', #8, #43, #39 ) ;
#138 = FILL_AREA_STYLE ('',( #79 ) ) ;
#139 = ORIENTED_EDGE ( 'NONE', *, *, #67, .T. ) ;
#140 = SHAPE_DEFINITION_REPRESENTATION ( #73, #23 ) ;
#141 = ORIENTED_EDGE ( 'NONE', *, *, #109, .T. ) ;
#142 =( GEOMETRIC_REPRESENTATION_CONTEXT ( 3 ) GLOBAL_UNCERTAINTY_ASSIGNED_CONTEXT ( ( #110 ) ) GLOBAL_UNIT_ASSIGNED_CONTEXT ( ( #126, #170, #82 ) ) REPRESENTATION_CONTEXT ( 'NONE', 'WORKASPACE' ) );
#143 = AXIS2_PLACEMENT_3D ( 'NONE', #164, #183, #107 ) ;
#144 = DIRECTION ( 'NONE',  ( 1.000000000000000000, -4.259385939352627576E-17, -1.112428321272187978E-17 ) ) ;
#145 = ORIENTED_EDGE ( 'NONE', *, *, #58, .F. ) ;
#146 = CIRCLE ( 'NONE', #15, 4.200000000000001954 ) ;
#147 = DIRECTION ( 'NONE',  ( 1.000000000000000000, -4.259385939352627576E-17, -1.112428321272187978E-17 ) ) ;
#148 = CARTESIAN_POINT ( 'NONE',  ( -0.5499999999999949374, 1.040834085586084257E-14, 1.387778780781445676E-14 ) ) ;
#149 = DIRECTION ( 'NONE',  ( 1.000000000000000000, -4.259385939352627576E-17, -1.112428321272187978E-17 ) ) ;
#150 = CARTESIAN_POINT ( 'NONE',  ( 7.206746031746035008, -8.104628079763642745E-15, -7.000000000000016875 ) ) ;
#151 = CARTESIAN_POINT ( 'NONE',  ( 7.206746031746035897, -6.938893903907228378E-15, -1.387778780781445676E-14 ) ) ;
#152 = MANIFOLD_SOLID_BREP ( 'Rotation1', #99 ) ;
#153 = AXIS2_PLACEMENT_3D ( 'NONE', #167, #90, #198 ) ;
#154 = ADVANCED_FACE ( 'NONE', ( #76 ), #197, .F. ) ;
#155 = DIRECTION ( 'NONE',  ( 1.000000000000000000, 0.000000000000000000, 0.000000000000000000 ) ) ;
#156 = ORIENTED_EDGE ( 'NONE', *, *, #58, .T. ) ;
#157 = CIRCLE ( 'NONE', #95, 7.000000000000002665 ) ;
#158 = VERTEX_POINT ( 'NONE', #54 ) ;
#159 = DIRECTION ( 'NONE',  ( -1.960049020799458264E-16, -1.665334536937734071E-16, -1.000000000000000000 ) ) ;
#160 = ADVANCED_FACE ( 'NONE', ( #168 ), #118, .T. ) ;
#161 = ORIENTED_EDGE ( 'NONE', *, *, #40, .T. ) ;
#162 = COLOUR_RGB ( '',0.7529411764705882248, 0.7529411764705882248, 0.7529411764705882248 ) ;
#163 = EDGE_CURVE ( 'NONE', #26, #98, #105, .T. ) ;
#164 = CARTESIAN_POINT ( 'NONE',  ( 0.000000000000000000, 0.000000000000000000, 0.000000000000000000 ) ) ;
#165 = DIRECTION ( 'NONE',  ( 1.960049020799458264E-16, 1.665334536937734071E-16, 1.000000000000000000 ) ) ;
#166 = SURFACE_SIDE_STYLE ('',( #3 ) ) ;
#167 = CARTESIAN_POINT ( 'NONE',  ( 7.206746031746035897, -6.938893903907228378E-15, -1.387778780781445676E-14 ) ) ;
#168 = FACE_OUTER_BOUND ( 'NONE', #9, .T. ) ;
#169 = EDGE_CURVE ( 'NONE', #114, #26, #157, .T. ) ;
#170 =( NAMED_UNIT ( * ) PLANE_ANGLE_UNIT ( ) SI_UNIT ( $, .RADIAN. ) );
#171 = ORIENTED_EDGE ( 'NONE', *, *, #173, .F. ) ;
#172 = AXIS2_PLACEMENT_3D ( 'NONE', #13, #144, #209 ) ;
#173 = EDGE_CURVE ( 'NONE', #186, #83, #202, .T. ) ;
#174 = ORIENTED_EDGE ( 'NONE', *, *, #211, .F. ) ;
#175 =( GEOMETRIC_REPRESENTATION_CONTEXT ( 3 ) GLOBAL_UNCERTAINTY_ASSIGNED_CONTEXT ( ( #60 ) ) GLOBAL_UNIT_ASSIGNED_CONTEXT ( ( #111, #203, #101 ) ) REPRESENTATION_CONTEXT ( 'NONE', 'WORKASPACE' ) );
#176 = DIRECTION ( 'NONE',  ( 1.000000000000000000, -4.259385939352631274E-17, -1.960049020799458264E-16 ) ) ;
#177 = ADVANCED_FACE ( 'NONE', ( #120, #4 ), #122, .T. ) ;
#178 = PLANE ( 'NONE',  #199 ) ;
#179 = AXIS2_PLACEMENT_3D ( 'NONE', #16, #17, #165 ) ;
#180 = CARTESIAN_POINT ( 'NONE',  ( 6.938893903907228378E-15, 4.200000000000001954, 1.387778780781445676E-14 ) ) ;
#181 = DIRECTION ( 'NONE',  ( -2.065146995210483709E-16, -1.665334536937734071E-16, -1.000000000000000000 ) ) ;
#182 = CIRCLE ( 'NONE', #24, 7.000000000000002665 ) ;
#183 = DIRECTION ( 'NONE',  ( 1.000000000000000000, -4.259385939352627576E-17, -1.112428321272187978E-17 ) ) ;
#184 = PRODUCT_DEFINITION ( 'UNKNOWN', '', #5, #37 ) ;
#185 = CARTESIAN_POINT ( 'NONE',  ( 7.206746031746035897, -6.938893903907228378E-15, -1.387778780781445676E-14 ) ) ;
#186 = VERTEX_POINT ( 'NONE', #71 ) ;
#187 = FACE_OUTER_BOUND ( 'NONE', #51, .T. ) ;
#188 = ORIENTED_EDGE ( 'NONE', *, *, #195, .T. ) ;
#189 = EDGE_CURVE ( 'NONE', #205, #98, #20, .T. ) ;
#190 = DIRECTION ( 'NONE',  ( 1.000000000000000000, -4.259385939352627576E-17, -1.112428321272187978E-17 ) ) ;
#191 = CARTESIAN_POINT ( 'NONE',  ( -0.5499999999999949374, 1.040834085586084257E-14, 1.387778780781445676E-14 ) ) ;
#192 = EDGE_CURVE ( 'NONE', #127, #186, #85, .T. ) ;
#193 = DIRECTION ( 'NONE',  ( -1.960049020799458510E-16, -1.665334536937734318E-16, -1.000000000000000000 ) ) ;
#194 = AXIS2_PLACEMENT_3D ( 'NONE', #196, #119, #30 ) ;
#195 = EDGE_CURVE ( 'NONE', #186, #127, #108, .T. ) ;
#196 = CARTESIAN_POINT ( 'NONE',  ( -0.5499999999999949374, 1.040834085586084257E-14, 1.387778780781445676E-14 ) ) ;
#197 = CYLINDRICAL_SURFACE ( 'NONE', #104, 4.200000000000001954 ) ;
#198 = DIRECTION ( 'NONE',  ( -2.478176394252580648E-16, -1.665334536937733332E-16, -1.000000000000000000 ) ) ;
#199 = AXIS2_PLACEMENT_3D ( 'NONE', #180, #176, #159 ) ;
#200 = FILL_AREA_STYLE_COLOUR ( '', #162 ) ;
#201 = ADVANCED_FACE ( 'NONE', ( #187 ), #36, .F. ) ;
#202 = LINE ( 'NONE', #59, #56 ) ;
#203 =( NAMED_UNIT ( * ) PLANE_ANGLE_UNIT ( ) SI_UNIT ( $, .RADIAN. ) );
#204 = CARTESIAN_POINT ( 'NONE',  ( 0.000000000000000000, 0.000000000000000000, 0.000000000000000000 ) ) ;
#205 = VERTEX_POINT ( 'NONE', #125 ) ;
#206 = ORIENTED_EDGE ( 'NONE', *, *, #195, .F. ) ;
#207 = VECTOR ( 'NONE', #190, 1000.000000000000000 ) ;
#208 = UNCERTAINTY_MEASURE_WITH_UNIT (LENGTH_MEASURE( 1.000000000000000082E-05 ), #133, 'distance_accuracy_value', 'NONE');
#209 = DIRECTION ( 'NONE',  ( -1.960049020799458264E-16, -1.665334536937733825E-16, -1.000000000000000000 ) ) ;
#210 = DIRECTION ( 'NONE',  ( 1.000000000000000000, -4.259385939352627576E-17, -1.112428321272187978E-17 ) ) ;
#211 = EDGE_CURVE ( 'NONE', #158, #83, #113, .T. ) ;
#212 = ORIENTED_EDGE ( 'NONE', *, *, #169, .T. ) ;
#213 = VECTOR ( 'NONE', #210, 1000.000000000000000 ) ;
#214 = DIRECTION ( 'NONE',  ( -2.013518320330221746E-16, -1.665334536937733332E-16, -1.000000000000000000 ) ) ;
ENDSEC;
END-ISO-10303-21;
