ISO-10303-21;
HEADER;
FILE_DESCRIPTION (( 'STEP AP214' ),
    '1' );
FILE_NAME ('841.142.320C.STEP',
    '2024-06-19T13:10:43',
    ( '' ),
    ( '' ),
    'SwSTEP 2.0',
    'SolidWorks 2022',
    '' );
FILE_SCHEMA (( 'AUTOMOTIVE_DESIGN' ));
ENDSEC;

DATA;
#1 = EDGE_LOOP ( 'NONE', ( #156, #145, #100, #3 ) ) ;
#2 = ADVANCED_FACE ( 'NONE', ( #167 ), #147, .T. ) ;
#3 = ORIENTED_EDGE ( 'NONE', *, *, #135, .F. ) ;
#4 = VERTEX_POINT ( 'NONE', #12 ) ;
#5 = STYLED_ITEM ( 'NONE', ( #51 ), #160 ) ;
#6 = EDGE_CURVE ( 'NONE', #211, #157, #59, .T. ) ;
#7 = DIRECTION ( 'NONE',  ( 1.000000000000000000, -0.000000000000000000, -0.000000000000000000 ) ) ;
#8 = SURFACE_STYLE_FILL_AREA ( #143 ) ;
#9 = DIRECTION ( 'NONE',  ( 1.000000000000000000, -0.000000000000000000, -0.000000000000000000 ) ) ;
#10 = VERTEX_POINT ( 'NONE', #74 ) ;
#11 = CARTESIAN_POINT ( 'NONE',  ( 7.206746031746035897, 0.000000000000000000, -5.099999999999998757 ) ) ;
#12 = CARTESIAN_POINT ( 'NONE',  ( -0.4499999999999999001, 0.000000000000000000, -5.099999999999998757 ) ) ;
#13 = APPLICATION_PROTOCOL_DEFINITION ( 'draft international standard', 'automotive_design', 1998, #140 ) ;
#14 = PLANE ( 'NONE',  #102 ) ;
#15 = UNCERTAINTY_MEASURE_WITH_UNIT (LENGTH_MEASURE( 1.000000000000000082E-05 ), #41, 'distance_accuracy_value', 'NONE');
#16 = AXIS2_PLACEMENT_3D ( 'NONE', #177, #7, #45 ) ;
#17 = SURFACE_STYLE_FILL_AREA ( #133 ) ;
#18 = SURFACE_STYLE_USAGE ( .BOTH. , #199 ) ;
#19 = EDGE_CURVE ( 'NONE', #141, #4, #67, .T. ) ;
#20 = DIRECTION ( 'NONE',  ( 0.000000000000000000, 0.000000000000000000, -1.000000000000000000 ) ) ;
#21 = PRODUCT_DEFINITION_CONTEXT ( 'detailed design', #140, 'design' ) ;
#22 = ORIENTED_EDGE ( 'NONE', *, *, #201, .F. ) ;
#23 = EDGE_CURVE ( 'NONE', #157, #211, #158, .T. ) ;
#24 = CIRCLE ( 'NONE', #87, 5.099999999999998757 ) ;
#25 = AXIS2_PLACEMENT_3D ( 'NONE', #96, #56, #178 ) ;
#26 = CYLINDRICAL_SURFACE ( 'NONE', #91, 5.099999999999998757 ) ;
#27 = CARTESIAN_POINT ( 'NONE',  ( 0.000000000000000000, 0.000000000000000000, 0.000000000000000000 ) ) ;
#28 = CARTESIAN_POINT ( 'NONE',  ( 0.000000000000000000, 0.000000000000000000, 0.000000000000000000 ) ) ;
#29 = AXIS2_PLACEMENT_3D ( 'NONE', #151, #34, #32 ) ;
#30 = ORIENTED_EDGE ( 'NONE', *, *, #19, .F. ) ;
#31 = SHAPE_DEFINITION_REPRESENTATION ( #162, #81 ) ;
#32 = DIRECTION ( 'NONE',  ( 0.000000000000000000, 0.000000000000000000, -1.000000000000000000 ) ) ;
#33 =( NAMED_UNIT ( * ) SI_UNIT ( $, .STERADIAN. ) SOLID_ANGLE_UNIT ( ) );
#34 = DIRECTION ( 'NONE',  ( 1.000000000000000000, -0.000000000000000000, -0.000000000000000000 ) ) ;
#35 = UNCERTAINTY_MEASURE_WITH_UNIT (LENGTH_MEASURE( 1.000000000000000082E-05 ), #48, 'distance_accuracy_value', 'NONE');
#36 = CARTESIAN_POINT ( 'NONE',  ( 0.000000000000000000, 0.000000000000000000, -3.199999999999999289 ) ) ;
#37 =( NAMED_UNIT ( * ) PLANE_ANGLE_UNIT ( ) SI_UNIT ( $, .RADIAN. ) );
#38 = ORIENTED_EDGE ( 'NONE', *, *, #98, .T. ) ;
#39 = ORIENTED_EDGE ( 'NONE', *, *, #201, .T. ) ;
#40 = LINE ( 'NONE', #55, #123 ) ;
#41 =( LENGTH_UNIT ( ) NAMED_UNIT ( * ) SI_UNIT ( .MILLI., .METRE. ) );
#42 = CARTESIAN_POINT ( 'NONE',  ( -0.4499999999999999001, 0.000000000000000000, 0.000000000000000000 ) ) ;
#43 = ORIENTED_EDGE ( 'NONE', *, *, #135, .T. ) ;
#44 = PRESENTATION_STYLE_ASSIGNMENT (( #109 ) ) ;
#45 = DIRECTION ( 'NONE',  ( 0.000000000000000000, 0.000000000000000000, -1.000000000000000000 ) ) ;
#46 = ADVANCED_FACE ( 'NONE', ( #77, #166 ), #142, .T. ) ;
#47 = DIRECTION ( 'NONE',  ( 0.000000000000000000, 0.000000000000000000, -1.000000000000000000 ) ) ;
#48 =( LENGTH_UNIT ( ) NAMED_UNIT ( * ) SI_UNIT ( .MILLI., .METRE. ) );
#49 = DIRECTION ( 'NONE',  ( 1.000000000000000000, 0.000000000000000000, -0.000000000000000000 ) ) ;
#50 = MECHANICAL_DESIGN_GEOMETRIC_PRESENTATION_REPRESENTATION (  '', ( #92 ), #139 ) ;
#51 = PRESENTATION_STYLE_ASSIGNMENT (( #18 ) ) ;
#52 = PRODUCT_DEFINITION ( 'UNKNOWN', '', #152, #21 ) ;
#53 = ORIENTED_EDGE ( 'NONE', *, *, #115, .F. ) ;
#54 = EDGE_LOOP ( 'NONE', ( #206, #194, #183, #72 ) ) ;
#55 = CARTESIAN_POINT ( 'NONE',  ( 7.206746031746035897, 6.245698675651499853E-16, 5.099999999999998757 ) ) ;
#56 = DIRECTION ( 'NONE',  ( 0.000000000000000000, 0.000000000000000000, 1.000000000000000000 ) ) ;
#57 = EDGE_CURVE ( 'NONE', #141, #10, #40, .T. ) ;
#58 = ORIENTED_EDGE ( 'NONE', *, *, #120, .F. ) ;
#59 = CIRCLE ( 'NONE', #111, 3.199999999999999289 ) ;
#60 = ORIENTED_EDGE ( 'NONE', *, *, #6, .F. ) ;
#61 = CARTESIAN_POINT ( 'NONE',  ( 7.206746031746035897, 3.918869757271529474E-16, 3.199999999999999289 ) ) ;
#62 = DIRECTION ( 'NONE',  ( 1.000000000000000000, -0.000000000000000000, -0.000000000000000000 ) ) ;
#63 = CIRCLE ( 'NONE', #79, 3.199999999999999289 ) ;
#64 = DIRECTION ( 'NONE',  ( 0.000000000000000000, 0.000000000000000000, -1.000000000000000000 ) ) ;
#65 = CYLINDRICAL_SURFACE ( 'NONE', #202, 3.199999999999999289 ) ;
#66 = EDGE_CURVE ( 'NONE', #4, #203, #113, .T. ) ;
#67 = CIRCLE ( 'NONE', #16, 5.099999999999998757 ) ;
#68 = DIRECTION ( 'NONE',  ( 1.000000000000000000, -0.000000000000000000, -0.000000000000000000 ) ) ;
#69 = EDGE_CURVE ( 'NONE', #126, #211, #80, .T. ) ;
#70 = CIRCLE ( 'NONE', #186, 3.199999999999999289 ) ;
#71 = ORIENTED_EDGE ( 'NONE', *, *, #66, .F. ) ;
#72 = ORIENTED_EDGE ( 'NONE', *, *, #23, .T. ) ;
#73 = AXIS2_PLACEMENT_3D ( 'NONE', #148, #208, #97 ) ;
#74 = CARTESIAN_POINT ( 'NONE',  ( 0.000000000000000000, 6.245698675651499853E-16, 5.099999999999998757 ) ) ;
#75 = EDGE_CURVE ( 'NONE', #88, #126, #63, .T. ) ;
#76 =( NAMED_UNIT ( * ) PLANE_ANGLE_UNIT ( ) SI_UNIT ( $, .RADIAN. ) );
#77 = FACE_BOUND ( 'NONE', #182, .T. ) ;
#78 = EDGE_LOOP ( 'NONE', ( #39, #190, #53, #71 ) ) ;
#79 = AXIS2_PLACEMENT_3D ( 'NONE', #195, #159, #122 ) ;
#80 = LINE ( 'NONE', #61, #170 ) ;
#81 = ADVANCED_BREP_SHAPE_REPRESENTATION ( '841.142.320C', ( #160, #25 ), #134 ) ;
#82 = CARTESIAN_POINT ( 'NONE',  ( 0.000000000000000000, 0.000000000000000000, 0.000000000000000000 ) ) ;
#83 = DIRECTION ( 'NONE',  ( -0.000000000000000000, 0.000000000000000000, -1.000000000000000000 ) ) ;
#84 = CARTESIAN_POINT ( 'NONE',  ( 0.000000000000000000, 3.918869757271529474E-16, 3.199999999999999289 ) ) ;
#85 = APPLICATION_CONTEXT ( 'automotive_design' ) ;
#86 = CARTESIAN_POINT ( 'NONE',  ( -0.4499999999999999001, 6.245698675651499853E-16, 5.099999999999998757 ) ) ;
#87 = AXIS2_PLACEMENT_3D ( 'NONE', #27, #104, #64 ) ;
#88 = VERTEX_POINT ( 'NONE', #192 ) ;
#89 = AXIS2_PLACEMENT_3D ( 'NONE', #149, #212, #101 ) ;
#90 = PRODUCT ( '841.142.320C', '841.142.320C', '', ( #112 ) ) ;
#91 = AXIS2_PLACEMENT_3D ( 'NONE', #161, #9, #144 ) ;
#92 = STYLED_ITEM ( 'NONE', ( #44 ), #81 ) ;
#93 = ORIENTED_EDGE ( 'NONE', *, *, #69, .T. ) ;
#94 = ADVANCED_FACE ( 'NONE', ( #106 ), #26, .T. ) ;
#95 = DIRECTION ( 'NONE',  ( 1.000000000000000000, -0.000000000000000000, -0.000000000000000000 ) ) ;
#96 = CARTESIAN_POINT ( 'NONE',  ( 0.000000000000000000, 0.000000000000000000, 0.000000000000000000 ) ) ;
#97 = DIRECTION ( 'NONE',  ( 0.000000000000000000, 0.000000000000000000, 1.000000000000000000 ) ) ;
#98 = EDGE_CURVE ( 'NONE', #126, #88, #70, .T. ) ;
#99 = DIRECTION ( 'NONE',  ( 0.000000000000000000, 0.000000000000000000, -1.000000000000000000 ) ) ;
#100 = ORIENTED_EDGE ( 'NONE', *, *, #66, .T. ) ;
#101 = DIRECTION ( 'NONE',  ( 0.000000000000000000, 0.000000000000000000, -1.000000000000000000 ) ) ;
#102 = AXIS2_PLACEMENT_3D ( 'NONE', #116, #49, #83 ) ;
#103 = DIRECTION ( 'NONE',  ( 0.000000000000000000, 0.000000000000000000, -1.000000000000000000 ) ) ;
#104 = DIRECTION ( 'NONE',  ( 1.000000000000000000, -0.000000000000000000, -0.000000000000000000 ) ) ;
#105 = ORIENTED_EDGE ( 'NONE', *, *, #98, .F. ) ;
#106 = FACE_OUTER_BOUND ( 'NONE', #1, .T. ) ;
#107 = DIRECTION ( 'NONE',  ( 0.000000000000000000, 0.000000000000000000, -1.000000000000000000 ) ) ;
#108 = EDGE_LOOP ( 'NONE', ( #179, #43 ) ) ;
#109 = SURFACE_STYLE_USAGE ( .BOTH. , #146 ) ;
#110 = ORIENTED_EDGE ( 'NONE', *, *, #6, .T. ) ;
#111 = AXIS2_PLACEMENT_3D ( 'NONE', #28, #62, #99 ) ;
#112 = PRODUCT_CONTEXT ( 'NONE', #85, 'mechanical' ) ;
#113 = LINE ( 'NONE', #11, #165 ) ;
#114 =( NAMED_UNIT ( * ) SI_UNIT ( $, .STERADIAN. ) SOLID_ANGLE_UNIT ( ) );
#115 = EDGE_CURVE ( 'NONE', #203, #10, #24, .T. ) ;
#116 = CARTESIAN_POINT ( 'NONE',  ( -1.897353801849632760E-16, 3.199999999999999289, 0.000000000000000000 ) ) ;
#117 = CIRCLE ( 'NONE', #89, 5.099999999999998757 ) ;
#118 = PRESENTATION_LAYER_ASSIGNMENT (  '', '', ( #5 ) ) ;
#119 = ORIENTED_EDGE ( 'NONE', *, *, #23, .F. ) ;
#120 = EDGE_CURVE ( 'NONE', #88, #157, #214, .T. ) ;
#121 = AXIS2_PLACEMENT_3D ( 'NONE', #82, #95, #128 ) ;
#122 = DIRECTION ( 'NONE',  ( 0.000000000000000000, 0.000000000000000000, -1.000000000000000000 ) ) ;
#123 = VECTOR ( 'NONE', #197, 1000.000000000000000 ) ;
#124 = ORIENTED_EDGE ( 'NONE', *, *, #75, .T. ) ;
#125 = APPLICATION_PROTOCOL_DEFINITION ( 'draft international standard', 'automotive_design', 1998, #85 ) ;
#126 = VERTEX_POINT ( 'NONE', #136 ) ;
#127 = DIRECTION ( 'NONE',  ( 1.000000000000000000, -0.000000000000000000, -0.000000000000000000 ) ) ;
#128 = DIRECTION ( 'NONE',  ( 0.000000000000000000, 0.000000000000000000, -1.000000000000000000 ) ) ;
#129 = UNCERTAINTY_MEASURE_WITH_UNIT (LENGTH_MEASURE( 1.000000000000000082E-05 ), #184, 'distance_accuracy_value', 'NONE');
#130 = ADVANCED_FACE ( 'NONE', ( #188 ), #65, .F. ) ;
#131 = CARTESIAN_POINT ( 'NONE',  ( 7.206746031746035897, 0.000000000000000000, 0.000000000000000000 ) ) ;
#132 = CARTESIAN_POINT ( 'NONE',  ( 7.206746031746035897, 0.000000000000000000, -3.199999999999999289 ) ) ;
#133 = FILL_AREA_STYLE ('',( #213 ) ) ;
#134 =( GEOMETRIC_REPRESENTATION_CONTEXT ( 3 ) GLOBAL_UNCERTAINTY_ASSIGNED_CONTEXT ( ( #129 ) ) GLOBAL_UNIT_ASSIGNED_CONTEXT ( ( #184, #209, #33 ) ) REPRESENTATION_CONTEXT ( 'NONE', 'WORKASPACE' ) );
#135 = EDGE_CURVE ( 'NONE', #10, #203, #191, .T. ) ;
#136 = CARTESIAN_POINT ( 'NONE',  ( -0.4499999999999999001, 3.918869757271529474E-16, 3.199999999999999289 ) ) ;
#137 = CLOSED_SHELL ( 'NONE', ( #2, #153, #130, #46, #94, #176 ) ) ;
#138 = COLOUR_RGB ( '',0.6470588235294117974, 0.6196078431372549211, 0.5882352941176470784 ) ;
#139 =( GEOMETRIC_REPRESENTATION_CONTEXT ( 3 ) GLOBAL_UNCERTAINTY_ASSIGNED_CONTEXT ( ( #15 ) ) GLOBAL_UNIT_ASSIGNED_CONTEXT ( ( #41, #76, #168 ) ) REPRESENTATION_CONTEXT ( 'NONE', 'WORKASPACE' ) );
#140 = APPLICATION_CONTEXT ( 'automotive_design' ) ;
#141 = VERTEX_POINT ( 'NONE', #86 ) ;
#142 = PLANE ( 'NONE',  #73 ) ;
#143 = FILL_AREA_STYLE ('',( #163 ) ) ;
#144 = DIRECTION ( 'NONE',  ( 0.000000000000000000, 0.000000000000000000, -1.000000000000000000 ) ) ;
#145 = ORIENTED_EDGE ( 'NONE', *, *, #19, .T. ) ;
#146 = SURFACE_SIDE_STYLE ('',( #8 ) ) ;
#147 = CYLINDRICAL_SURFACE ( 'NONE', #181, 5.099999999999998757 ) ;
#148 = CARTESIAN_POINT ( 'NONE',  ( -0.4500000000000001221, 5.099999999999998757, 0.000000000000000000 ) ) ;
#149 = CARTESIAN_POINT ( 'NONE',  ( -0.4499999999999999001, 0.000000000000000000, 0.000000000000000000 ) ) ;
#150 =( GEOMETRIC_REPRESENTATION_CONTEXT ( 3 ) GLOBAL_UNCERTAINTY_ASSIGNED_CONTEXT ( ( #35 ) ) GLOBAL_UNIT_ASSIGNED_CONTEXT ( ( #48, #37, #114 ) ) REPRESENTATION_CONTEXT ( 'NONE', 'WORKASPACE' ) );
#151 = CARTESIAN_POINT ( 'NONE',  ( 7.206746031746035897, 0.000000000000000000, 0.000000000000000000 ) ) ;
#152 = PRODUCT_DEFINITION_FORMATION_WITH_SPECIFIED_SOURCE ( 'ANY', '', #90, .NOT_KNOWN. ) ;
#153 = ADVANCED_FACE ( 'NONE', ( #198 ), #173, .F. ) ;
#154 = EDGE_LOOP ( 'NONE', ( #22, #30 ) ) ;
#155 = VECTOR ( 'NONE', #68, 1000.000000000000000 ) ;
#156 = ORIENTED_EDGE ( 'NONE', *, *, #57, .F. ) ;
#157 = VERTEX_POINT ( 'NONE', #36 ) ;
#158 = CIRCLE ( 'NONE', #121, 3.199999999999999289 ) ;
#159 = DIRECTION ( 'NONE',  ( 1.000000000000000000, -0.000000000000000000, -0.000000000000000000 ) ) ;
#160 = MANIFOLD_SOLID_BREP ( 'Rotation1', #137 ) ;
#161 = CARTESIAN_POINT ( 'NONE',  ( 7.206746031746035897, 0.000000000000000000, 0.000000000000000000 ) ) ;
#162 = PRODUCT_DEFINITION_SHAPE ( 'NONE', 'NONE',  #52 ) ;
#163 = FILL_AREA_STYLE_COLOUR ( '', #138 ) ;
#164 = DIRECTION ( 'NONE',  ( 1.000000000000000000, -0.000000000000000000, -0.000000000000000000 ) ) ;
#165 = VECTOR ( 'NONE', #193, 1000.000000000000000 ) ;
#166 = FACE_OUTER_BOUND ( 'NONE', #154, .T. ) ;
#167 = FACE_OUTER_BOUND ( 'NONE', #78, .T. ) ;
#168 =( NAMED_UNIT ( * ) SI_UNIT ( $, .STERADIAN. ) SOLID_ANGLE_UNIT ( ) );
#169 = FACE_OUTER_BOUND ( 'NONE', #108, .T. ) ;
#170 = VECTOR ( 'NONE', #127, 1000.000000000000000 ) ;
#171 = CARTESIAN_POINT ( 'NONE',  ( 0.000000000000000000, 0.000000000000000000, -5.099999999999998757 ) ) ;
#172 = DIRECTION ( 'NONE',  ( 1.000000000000000000, -0.000000000000000000, -0.000000000000000000 ) ) ;
#173 = CYLINDRICAL_SURFACE ( 'NONE', #29, 3.199999999999999289 ) ;
#174 = COLOUR_RGB ( '',0.6470588235294117974, 0.6196078431372549211, 0.5882352941176470784 ) ;
#175 = MECHANICAL_DESIGN_GEOMETRIC_PRESENTATION_REPRESENTATION (  '', ( #5 ), #150 ) ;
#176 = ADVANCED_FACE ( 'NONE', ( #169, #185 ), #14, .T. ) ;
#177 = CARTESIAN_POINT ( 'NONE',  ( -0.4499999999999999001, 0.000000000000000000, 0.000000000000000000 ) ) ;
#178 = DIRECTION ( 'NONE',  ( 1.000000000000000000, 0.000000000000000000, 0.000000000000000000 ) ) ;
#179 = ORIENTED_EDGE ( 'NONE', *, *, #115, .T. ) ;
#180 = CARTESIAN_POINT ( 'NONE',  ( 7.206746031746035897, 0.000000000000000000, 0.000000000000000000 ) ) ;
#181 = AXIS2_PLACEMENT_3D ( 'NONE', #180, #164, #47 ) ;
#182 = EDGE_LOOP ( 'NONE', ( #124, #38 ) ) ;
#183 = ORIENTED_EDGE ( 'NONE', *, *, #120, .T. ) ;
#184 =( LENGTH_UNIT ( ) NAMED_UNIT ( * ) SI_UNIT ( .MILLI., .METRE. ) );
#185 = FACE_BOUND ( 'NONE', #189, .T. ) ;
#186 = AXIS2_PLACEMENT_3D ( 'NONE', #42, #207, #107 ) ;
#187 = CARTESIAN_POINT ( 'NONE',  ( 0.000000000000000000, 0.000000000000000000, 0.000000000000000000 ) ) ;
#188 = FACE_OUTER_BOUND ( 'NONE', #54, .T. ) ;
#189 = EDGE_LOOP ( 'NONE', ( #119, #60 ) ) ;
#190 = ORIENTED_EDGE ( 'NONE', *, *, #57, .T. ) ;
#191 = CIRCLE ( 'NONE', #205, 5.099999999999998757 ) ;
#192 = CARTESIAN_POINT ( 'NONE',  ( -0.4499999999999999001, 0.000000000000000000, -3.199999999999999289 ) ) ;
#193 = DIRECTION ( 'NONE',  ( 1.000000000000000000, -0.000000000000000000, -0.000000000000000000 ) ) ;
#194 = ORIENTED_EDGE ( 'NONE', *, *, #75, .F. ) ;
#195 = CARTESIAN_POINT ( 'NONE',  ( -0.4499999999999999001, 0.000000000000000000, 0.000000000000000000 ) ) ;
#196 = PRESENTATION_LAYER_ASSIGNMENT (  '', '', ( #92 ) ) ;
#197 = DIRECTION ( 'NONE',  ( 1.000000000000000000, -0.000000000000000000, -0.000000000000000000 ) ) ;
#198 = FACE_OUTER_BOUND ( 'NONE', #210, .T. ) ;
#199 = SURFACE_SIDE_STYLE ('',( #17 ) ) ;
#200 = DIRECTION ( 'NONE',  ( 1.000000000000000000, -0.000000000000000000, -0.000000000000000000 ) ) ;
#201 = EDGE_CURVE ( 'NONE', #4, #141, #117, .T. ) ;
#202 = AXIS2_PLACEMENT_3D ( 'NONE', #131, #172, #20 ) ;
#203 = VERTEX_POINT ( 'NONE', #171 ) ;
#204 = PRODUCT_RELATED_PRODUCT_CATEGORY ( 'part', '', ( #90 ) ) ;
#205 = AXIS2_PLACEMENT_3D ( 'NONE', #187, #200, #103 ) ;
#206 = ORIENTED_EDGE ( 'NONE', *, *, #69, .F. ) ;
#207 = DIRECTION ( 'NONE',  ( 1.000000000000000000, -0.000000000000000000, -0.000000000000000000 ) ) ;
#208 = DIRECTION ( 'NONE',  ( -1.000000000000000000, 0.000000000000000000, 0.000000000000000000 ) ) ;
#209 =( NAMED_UNIT ( * ) PLANE_ANGLE_UNIT ( ) SI_UNIT ( $, .RADIAN. ) );
#210 = EDGE_LOOP ( 'NONE', ( #105, #93, #110, #58 ) ) ;
#211 = VERTEX_POINT ( 'NONE', #84 ) ;
#212 = DIRECTION ( 'NONE',  ( 1.000000000000000000, -0.000000000000000000, -0.000000000000000000 ) ) ;
#213 = FILL_AREA_STYLE_COLOUR ( '', #174 ) ;
#214 = LINE ( 'NONE', #132, #155 ) ;
ENDSEC;
END-ISO-10303-21;
