ISO-10303-21;
HEADER;
FILE_DESCRIPTION (( 'STEP AP214' ),
    '1' );
FILE_NAME ('841.142.320.STEP',
    '2024-06-19T13:09:54',
    ( '' ),
    ( '' ),
    'SwSTEP 2.0',
    'SolidWorks 2022',
    '' );
FILE_SCHEMA (( 'AUTOMOTIVE_DESIGN' ));
ENDSEC;

DATA;
#1 = DIRECTION ( 'NONE',  ( -1.000000000000000000, 0.000000000000000000, 0.000000000000000000 ) ) ;
#2 = CYLINDRICAL_SURFACE ( 'NONE', #27, 3.199999999999999289 ) ;
#3 = DIRECTION ( 'NONE',  ( 1.000000000000000000, -0.000000000000000000, -0.000000000000000000 ) ) ;
#4 = AXIS2_PLACEMENT_3D ( 'NONE', #194, #60, #112 ) ;
#5 =( LENGTH_UNIT ( ) NAMED_UNIT ( * ) SI_UNIT ( .MILLI., .METRE. ) );
#6 = CARTESIAN_POINT ( 'NONE',  ( -0.4499999999999999001, 0.000000000000000000, 0.000000000000000000 ) ) ;
#7 = CARTESIAN_POINT ( 'NONE',  ( 7.206746031746035897, 0.000000000000000000, 0.000000000000000000 ) ) ;
#8 = DIRECTION ( 'NONE',  ( 0.000000000000000000, 0.000000000000000000, -1.000000000000000000 ) ) ;
#9 = DIRECTION ( 'NONE',  ( 1.000000000000000000, 0.000000000000000000, -0.000000000000000000 ) ) ;
#10 = EDGE_CURVE ( 'NONE', #43, #142, #191, .T. ) ;
#11 = DIRECTION ( 'NONE',  ( 1.000000000000000000, -0.000000000000000000, -0.000000000000000000 ) ) ;
#12 = EDGE_CURVE ( 'NONE', #204, #184, #47, .T. ) ;
#13 = AXIS2_PLACEMENT_3D ( 'NONE', #7, #21, #8 ) ;
#14 =( LENGTH_UNIT ( ) NAMED_UNIT ( * ) SI_UNIT ( .MILLI., .METRE. ) );
#15 = EDGE_LOOP ( 'NONE', ( #186, #200 ) ) ;
#16 =( NAMED_UNIT ( * ) SI_UNIT ( $, .STERADIAN. ) SOLID_ANGLE_UNIT ( ) );
#17 = DIRECTION ( 'NONE',  ( 0.000000000000000000, 0.000000000000000000, 1.000000000000000000 ) ) ;
#18 = PLANE ( 'NONE',  #165 ) ;
#19 = LINE ( 'NONE', #109, #155 ) ;
#20 = ORIENTED_EDGE ( 'NONE', *, *, #187, .F. ) ;
#21 = DIRECTION ( 'NONE',  ( 1.000000000000000000, -0.000000000000000000, -0.000000000000000000 ) ) ;
#22 = CARTESIAN_POINT ( 'NONE',  ( 0.000000000000000000, 0.000000000000000000, 0.000000000000000000 ) ) ;
#23 = CIRCLE ( 'NONE', #188, 3.199999999999999289 ) ;
#24 = ORIENTED_EDGE ( 'NONE', *, *, #42, .F. ) ;
#25 =( NAMED_UNIT ( * ) SI_UNIT ( $, .STERADIAN. ) SOLID_ANGLE_UNIT ( ) );
#26 = ORIENTED_EDGE ( 'NONE', *, *, #84, .F. ) ;
#27 = AXIS2_PLACEMENT_3D ( 'NONE', #178, #129, #166 ) ;
#28 = VERTEX_POINT ( 'NONE', #158 ) ;
#29 = EDGE_CURVE ( 'NONE', #82, #137, #19, .T. ) ;
#30 = DIRECTION ( 'NONE',  ( 1.000000000000000000, -0.000000000000000000, -0.000000000000000000 ) ) ;
#31 = EDGE_CURVE ( 'NONE', #184, #142, #132, .T. ) ;
#32 = DIRECTION ( 'NONE',  ( 0.000000000000000000, 0.000000000000000000, -1.000000000000000000 ) ) ;
#33 = CARTESIAN_POINT ( 'NONE',  ( 7.206746031746035897, 0.000000000000000000, -5.099999999999998757 ) ) ;
#34 = STYLED_ITEM ( 'NONE', ( #140 ), #52 ) ;
#35 = CARTESIAN_POINT ( 'NONE',  ( -0.4499999999999999001, 0.000000000000000000, 0.000000000000000000 ) ) ;
#36 = DIRECTION ( 'NONE',  ( 1.000000000000000000, -0.000000000000000000, -0.000000000000000000 ) ) ;
#37 = FACE_BOUND ( 'NONE', #88, .T. ) ;
#38 = VECTOR ( 'NONE', #11, 1000.000000000000000 ) ;
#39 = FACE_OUTER_BOUND ( 'NONE', #106, .T. ) ;
#40 = CYLINDRICAL_SURFACE ( 'NONE', #4, 3.199999999999999289 ) ;
#41 = DIRECTION ( 'NONE',  ( 1.000000000000000000, -0.000000000000000000, -0.000000000000000000 ) ) ;
#42 = EDGE_CURVE ( 'NONE', #28, #82, #59, .T. ) ;
#43 = VERTEX_POINT ( 'NONE', #138 ) ;
#44 = AXIS2_PLACEMENT_3D ( 'NONE', #45, #80, #61 ) ;
#45 = CARTESIAN_POINT ( 'NONE',  ( 0.000000000000000000, 0.000000000000000000, 0.000000000000000000 ) ) ;
#46 = ORIENTED_EDGE ( 'NONE', *, *, #29, .F. ) ;
#47 = LINE ( 'NONE', #89, #73 ) ;
#48 = EDGE_CURVE ( 'NONE', #43, #204, #182, .T. ) ;
#49 = MECHANICAL_DESIGN_GEOMETRIC_PRESENTATION_REPRESENTATION (  '', ( #34 ), #124 ) ;
#50 = COLOUR_RGB ( '',0.6470588235294117974, 0.6196078431372549211, 0.5882352941176470784 ) ;
#51 = SURFACE_STYLE_USAGE ( .BOTH. , #154 ) ;
#52 = MANIFOLD_SOLID_BREP ( 'Rotation1', #212 ) ;
#53 = UNCERTAINTY_MEASURE_WITH_UNIT (LENGTH_MEASURE( 1.000000000000000082E-05 ), #14, 'distance_accuracy_value', 'NONE');
#54 = FACE_OUTER_BOUND ( 'NONE', #135, .T. ) ;
#55 = ADVANCED_FACE ( 'NONE', ( #85, #54 ), #18, .T. ) ;
#56 = FACE_OUTER_BOUND ( 'NONE', #15, .T. ) ;
#57 = DIRECTION ( 'NONE',  ( 0.000000000000000000, 0.000000000000000000, -1.000000000000000000 ) ) ;
#58 =( LENGTH_UNIT ( ) NAMED_UNIT ( * ) SI_UNIT ( .MILLI., .METRE. ) );
#59 = CIRCLE ( 'NONE', #207, 3.199999999999999289 ) ;
#60 = DIRECTION ( 'NONE',  ( 1.000000000000000000, -0.000000000000000000, -0.000000000000000000 ) ) ;
#61 = DIRECTION ( 'NONE',  ( 1.000000000000000000, 0.000000000000000000, 0.000000000000000000 ) ) ;
#62 = ORIENTED_EDGE ( 'NONE', *, *, #79, .T. ) ;
#63 = APPLICATION_CONTEXT ( 'automotive_design' ) ;
#64 = ORIENTED_EDGE ( 'NONE', *, *, #193, .T. ) ;
#65 = PRODUCT_DEFINITION ( 'UNKNOWN', '', #102, #107 ) ;
#66 = EDGE_LOOP ( 'NONE', ( #24, #175, #117, #46 ) ) ;
#67 = SURFACE_STYLE_FILL_AREA ( #157 ) ;
#68 = DIRECTION ( 'NONE',  ( 1.000000000000000000, -0.000000000000000000, -0.000000000000000000 ) ) ;
#69 = DIRECTION ( 'NONE',  ( 1.000000000000000000, -0.000000000000000000, -0.000000000000000000 ) ) ;
#70 = ADVANCED_FACE ( 'NONE', ( #153 ), #2, .F. ) ;
#71 = DIRECTION ( 'NONE',  ( 0.000000000000000000, 0.000000000000000000, -1.000000000000000000 ) ) ;
#72 = CYLINDRICAL_SURFACE ( 'NONE', #13, 5.099999999999998757 ) ;
#73 = VECTOR ( 'NONE', #86, 1000.000000000000000 ) ;
#74 = EDGE_CURVE ( 'NONE', #214, #137, #23, .T. ) ;
#75 = CARTESIAN_POINT ( 'NONE',  ( 7.206746031746035897, 0.000000000000000000, 0.000000000000000000 ) ) ;
#76 = CARTESIAN_POINT ( 'NONE',  ( -0.4499999999999999001, 0.000000000000000000, 0.000000000000000000 ) ) ;
#77 =( GEOMETRIC_REPRESENTATION_CONTEXT ( 3 ) GLOBAL_UNCERTAINTY_ASSIGNED_CONTEXT ( ( #90 ) ) GLOBAL_UNIT_ASSIGNED_CONTEXT ( ( #58, #160, #127 ) ) REPRESENTATION_CONTEXT ( 'NONE', 'WORKASPACE' ) );
#78 = DIRECTION ( 'NONE',  ( 1.000000000000000000, -0.000000000000000000, -0.000000000000000000 ) ) ;
#79 = EDGE_CURVE ( 'NONE', #82, #28, #87, .T. ) ;
#80 = DIRECTION ( 'NONE',  ( 0.000000000000000000, 0.000000000000000000, 1.000000000000000000 ) ) ;
#81 =( NAMED_UNIT ( * ) PLANE_ANGLE_UNIT ( ) SI_UNIT ( $, .RADIAN. ) );
#82 = VERTEX_POINT ( 'NONE', #113 ) ;
#83 = VECTOR ( 'NONE', #3, 1000.000000000000000 ) ;
#84 = EDGE_CURVE ( 'NONE', #142, #184, #92, .T. ) ;
#85 = FACE_BOUND ( 'NONE', #121, .T. ) ;
#86 = DIRECTION ( 'NONE',  ( 1.000000000000000000, -0.000000000000000000, -0.000000000000000000 ) ) ;
#87 = CIRCLE ( 'NONE', #100, 3.199999999999999289 ) ;
#88 = EDGE_LOOP ( 'NONE', ( #118, #97 ) ) ;
#89 = CARTESIAN_POINT ( 'NONE',  ( 7.206746031746035897, 6.245698675651499853E-16, 5.099999999999998757 ) ) ;
#90 = UNCERTAINTY_MEASURE_WITH_UNIT (LENGTH_MEASURE( 1.000000000000000082E-05 ), #58, 'distance_accuracy_value', 'NONE');
#91 = DIRECTION ( 'NONE',  ( 0.000000000000000000, 0.000000000000000000, -1.000000000000000000 ) ) ;
#92 = CIRCLE ( 'NONE', #151, 5.099999999999998757 ) ;
#93 = DIRECTION ( 'NONE',  ( 0.000000000000000000, 0.000000000000000000, -1.000000000000000000 ) ) ;
#94 = CARTESIAN_POINT ( 'NONE',  ( 0.000000000000000000, 0.000000000000000000, -3.199999999999999289 ) ) ;
#95 = DIRECTION ( 'NONE',  ( 0.000000000000000000, 0.000000000000000000, -1.000000000000000000 ) ) ;
#96 = DIRECTION ( 'NONE',  ( 1.000000000000000000, -0.000000000000000000, -0.000000000000000000 ) ) ;
#97 = ORIENTED_EDGE ( 'NONE', *, *, #74, .F. ) ;
#98 = EDGE_CURVE ( 'NONE', #137, #214, #114, .T. ) ;
#99 = ORIENTED_EDGE ( 'NONE', *, *, #42, .T. ) ;
#100 = AXIS2_PLACEMENT_3D ( 'NONE', #76, #36, #95 ) ;
#101 = ORIENTED_EDGE ( 'NONE', *, *, #12, .F. ) ;
#102 = PRODUCT_DEFINITION_FORMATION_WITH_SPECIFIED_SOURCE ( 'ANY', '', #173, .NOT_KNOWN. ) ;
#103 = FILL_AREA_STYLE_COLOUR ( '', #185 ) ;
#104 = DIRECTION ( 'NONE',  ( 0.000000000000000000, 0.000000000000000000, -1.000000000000000000 ) ) ;
#105 = ADVANCED_FACE ( 'NONE', ( #39 ), #147, .T. ) ;
#106 = EDGE_LOOP ( 'NONE', ( #122, #169, #26, #172 ) ) ;
#107 = PRODUCT_DEFINITION_CONTEXT ( 'detailed design', #203, 'design' ) ;
#108 = ORIENTED_EDGE ( 'NONE', *, *, #193, .F. ) ;
#109 = CARTESIAN_POINT ( 'NONE',  ( 7.206746031746035897, 0.000000000000000000, -3.199999999999999289 ) ) ;
#110 = APPLICATION_PROTOCOL_DEFINITION ( 'draft international standard', 'automotive_design', 1998, #63 ) ;
#111 = PRESENTATION_LAYER_ASSIGNMENT (  '', '', ( #34 ) ) ;
#112 = DIRECTION ( 'NONE',  ( 0.000000000000000000, 0.000000000000000000, -1.000000000000000000 ) ) ;
#113 = CARTESIAN_POINT ( 'NONE',  ( -0.4499999999999999001, 0.000000000000000000, -3.199999999999999289 ) ) ;
#114 = CIRCLE ( 'NONE', #179, 3.199999999999999289 ) ;
#115 = FILL_AREA_STYLE_COLOUR ( '', #50 ) ;
#116 = SURFACE_STYLE_FILL_AREA ( #134 ) ;
#117 = ORIENTED_EDGE ( 'NONE', *, *, #74, .T. ) ;
#118 = ORIENTED_EDGE ( 'NONE', *, *, #98, .F. ) ;
#119 = STYLED_ITEM ( 'NONE', ( #149 ), #141 ) ;
#120 = CARTESIAN_POINT ( 'NONE',  ( 0.000000000000000000, 0.000000000000000000, 0.000000000000000000 ) ) ;
#121 = EDGE_LOOP ( 'NONE', ( #62, #99 ) ) ;
#122 = ORIENTED_EDGE ( 'NONE', *, *, #48, .T. ) ;
#123 = ORIENTED_EDGE ( 'NONE', *, *, #29, .T. ) ;
#124 =( GEOMETRIC_REPRESENTATION_CONTEXT ( 3 ) GLOBAL_UNCERTAINTY_ASSIGNED_CONTEXT ( ( #205 ) ) GLOBAL_UNIT_ASSIGNED_CONTEXT ( ( #5, #171, #16 ) ) REPRESENTATION_CONTEXT ( 'NONE', 'WORKASPACE' ) );
#125 = ADVANCED_FACE ( 'NONE', ( #162 ), #72, .T. ) ;
#126 = CARTESIAN_POINT ( 'NONE',  ( 7.206746031746035897, 3.918869757271529474E-16, 3.199999999999999289 ) ) ;
#127 =( NAMED_UNIT ( * ) SI_UNIT ( $, .STERADIAN. ) SOLID_ANGLE_UNIT ( ) );
#128 = PRESENTATION_LAYER_ASSIGNMENT (  '', '', ( #119 ) ) ;
#129 = DIRECTION ( 'NONE',  ( 1.000000000000000000, -0.000000000000000000, -0.000000000000000000 ) ) ;
#130 = PLANE ( 'NONE',  #174 ) ;
#131 = APPLICATION_PROTOCOL_DEFINITION ( 'draft international standard', 'automotive_design', 1998, #203 ) ;
#132 = CIRCLE ( 'NONE', #161, 5.099999999999998757 ) ;
#133 = SURFACE_SIDE_STYLE ('',( #116 ) ) ;
#134 = FILL_AREA_STYLE ('',( #115 ) ) ;
#135 = EDGE_LOOP ( 'NONE', ( #192, #108 ) ) ;
#136 = AXIS2_PLACEMENT_3D ( 'NONE', #190, #30, #71 ) ;
#137 = VERTEX_POINT ( 'NONE', #94 ) ;
#138 = CARTESIAN_POINT ( 'NONE',  ( -0.4499999999999999001, 0.000000000000000000, -5.099999999999998757 ) ) ;
#139 = AXIS2_PLACEMENT_3D ( 'NONE', #75, #78, #93 ) ;
#140 = PRESENTATION_STYLE_ASSIGNMENT (( #51 ) ) ;
#141 = ADVANCED_BREP_SHAPE_REPRESENTATION ( '841.142.320', ( #52, #44 ), #77 ) ;
#142 = VERTEX_POINT ( 'NONE', #211 ) ;
#143 = CIRCLE ( 'NONE', #170, 5.099999999999998757 ) ;
#144 = CARTESIAN_POINT ( 'NONE',  ( -1.897353801849632760E-16, 3.199999999999999289, 0.000000000000000000 ) ) ;
#145 = CARTESIAN_POINT ( 'NONE',  ( 0.000000000000000000, 6.245698675651499853E-16, 5.099999999999998757 ) ) ;
#146 = DIRECTION ( 'NONE',  ( 1.000000000000000000, -0.000000000000000000, -0.000000000000000000 ) ) ;
#147 = CYLINDRICAL_SURFACE ( 'NONE', #139, 5.099999999999998757 ) ;
#148 = ORIENTED_EDGE ( 'NONE', *, *, #31, .F. ) ;
#149 = PRESENTATION_STYLE_ASSIGNMENT (( #168 ) ) ;
#150 = ORIENTED_EDGE ( 'NONE', *, *, #10, .T. ) ;
#151 = AXIS2_PLACEMENT_3D ( 'NONE', #197, #146, #196 ) ;
#152 = CARTESIAN_POINT ( 'NONE',  ( -0.4500000000000001221, 5.099999999999998757, 0.000000000000000000 ) ) ;
#153 = FACE_OUTER_BOUND ( 'NONE', #202, .T. ) ;
#154 = SURFACE_SIDE_STYLE ('',( #67 ) ) ;
#155 = VECTOR ( 'NONE', #69, 1000.000000000000000 ) ;
#156 =( GEOMETRIC_REPRESENTATION_CONTEXT ( 3 ) GLOBAL_UNCERTAINTY_ASSIGNED_CONTEXT ( ( #53 ) ) GLOBAL_UNIT_ASSIGNED_CONTEXT ( ( #14, #81, #25 ) ) REPRESENTATION_CONTEXT ( 'NONE', 'WORKASPACE' ) );
#157 = FILL_AREA_STYLE ('',( #103 ) ) ;
#158 = CARTESIAN_POINT ( 'NONE',  ( -0.4499999999999999001, 3.918869757271529474E-16, 3.199999999999999289 ) ) ;
#159 = PRODUCT_DEFINITION_SHAPE ( 'NONE', 'NONE',  #65 ) ;
#160 =( NAMED_UNIT ( * ) PLANE_ANGLE_UNIT ( ) SI_UNIT ( $, .RADIAN. ) );
#161 = AXIS2_PLACEMENT_3D ( 'NONE', #120, #206, #32 ) ;
#162 = FACE_OUTER_BOUND ( 'NONE', #199, .T. ) ;
#163 = FACE_OUTER_BOUND ( 'NONE', #66, .T. ) ;
#164 = CARTESIAN_POINT ( 'NONE',  ( 0.000000000000000000, 0.000000000000000000, 0.000000000000000000 ) ) ;
#165 = AXIS2_PLACEMENT_3D ( 'NONE', #152, #1, #17 ) ;
#166 = DIRECTION ( 'NONE',  ( 0.000000000000000000, 0.000000000000000000, -1.000000000000000000 ) ) ;
#167 = ADVANCED_FACE ( 'NONE', ( #56, #37 ), #130, .T. ) ;
#168 = SURFACE_STYLE_USAGE ( .BOTH. , #133 ) ;
#169 = ORIENTED_EDGE ( 'NONE', *, *, #12, .T. ) ;
#170 = AXIS2_PLACEMENT_3D ( 'NONE', #6, #209, #91 ) ;
#171 =( NAMED_UNIT ( * ) PLANE_ANGLE_UNIT ( ) SI_UNIT ( $, .RADIAN. ) );
#172 = ORIENTED_EDGE ( 'NONE', *, *, #10, .F. ) ;
#173 = PRODUCT ( '841.142.320', '841.142.320', '', ( #213 ) ) ;
#174 = AXIS2_PLACEMENT_3D ( 'NONE', #144, #9, #210 ) ;
#175 = ORIENTED_EDGE ( 'NONE', *, *, #187, .T. ) ;
#176 = ADVANCED_FACE ( 'NONE', ( #163 ), #40, .F. ) ;
#177 = DIRECTION ( 'NONE',  ( 0.000000000000000000, 0.000000000000000000, -1.000000000000000000 ) ) ;
#178 = CARTESIAN_POINT ( 'NONE',  ( 7.206746031746035897, 0.000000000000000000, 0.000000000000000000 ) ) ;
#179 = AXIS2_PLACEMENT_3D ( 'NONE', #164, #96, #177 ) ;
#180 = MECHANICAL_DESIGN_GEOMETRIC_PRESENTATION_REPRESENTATION (  '', ( #119 ), #156 ) ;
#181 = CARTESIAN_POINT ( 'NONE',  ( -0.4499999999999999001, 6.245698675651499853E-16, 5.099999999999998757 ) ) ;
#182 = CIRCLE ( 'NONE', #136, 5.099999999999998757 ) ;
#183 = ORIENTED_EDGE ( 'NONE', *, *, #79, .F. ) ;
#184 = VERTEX_POINT ( 'NONE', #145 ) ;
#185 = COLOUR_RGB ( '',0.6470588235294117974, 0.6196078431372549211, 0.5882352941176470784 ) ;
#186 = ORIENTED_EDGE ( 'NONE', *, *, #84, .T. ) ;
#187 = EDGE_CURVE ( 'NONE', #28, #214, #208, .T. ) ;
#188 = AXIS2_PLACEMENT_3D ( 'NONE', #22, #41, #57 ) ;
#189 = ORIENTED_EDGE ( 'NONE', *, *, #98, .T. ) ;
#190 = CARTESIAN_POINT ( 'NONE',  ( -0.4499999999999999001, 0.000000000000000000, 0.000000000000000000 ) ) ;
#191 = LINE ( 'NONE', #33, #83 ) ;
#192 = ORIENTED_EDGE ( 'NONE', *, *, #48, .F. ) ;
#193 = EDGE_CURVE ( 'NONE', #204, #43, #143, .T. ) ;
#194 = CARTESIAN_POINT ( 'NONE',  ( 7.206746031746035897, 0.000000000000000000, 0.000000000000000000 ) ) ;
#195 = CARTESIAN_POINT ( 'NONE',  ( 0.000000000000000000, 3.918869757271529474E-16, 3.199999999999999289 ) ) ;
#196 = DIRECTION ( 'NONE',  ( 0.000000000000000000, 0.000000000000000000, -1.000000000000000000 ) ) ;
#197 = CARTESIAN_POINT ( 'NONE',  ( 0.000000000000000000, 0.000000000000000000, 0.000000000000000000 ) ) ;
#198 = PRODUCT_RELATED_PRODUCT_CATEGORY ( 'part', '', ( #173 ) ) ;
#199 = EDGE_LOOP ( 'NONE', ( #101, #64, #150, #148 ) ) ;
#200 = ORIENTED_EDGE ( 'NONE', *, *, #31, .T. ) ;
#201 = SHAPE_DEFINITION_REPRESENTATION ( #159, #141 ) ;
#202 = EDGE_LOOP ( 'NONE', ( #20, #183, #123, #189 ) ) ;
#203 = APPLICATION_CONTEXT ( 'automotive_design' ) ;
#204 = VERTEX_POINT ( 'NONE', #181 ) ;
#205 = UNCERTAINTY_MEASURE_WITH_UNIT (LENGTH_MEASURE( 1.000000000000000082E-05 ), #5, 'distance_accuracy_value', 'NONE');
#206 = DIRECTION ( 'NONE',  ( 1.000000000000000000, -0.000000000000000000, -0.000000000000000000 ) ) ;
#207 = AXIS2_PLACEMENT_3D ( 'NONE', #35, #68, #104 ) ;
#208 = LINE ( 'NONE', #126, #38 ) ;
#209 = DIRECTION ( 'NONE',  ( 1.000000000000000000, -0.000000000000000000, -0.000000000000000000 ) ) ;
#210 = DIRECTION ( 'NONE',  ( -0.000000000000000000, 0.000000000000000000, -1.000000000000000000 ) ) ;
#211 = CARTESIAN_POINT ( 'NONE',  ( 0.000000000000000000, 0.000000000000000000, -5.099999999999998757 ) ) ;
#212 = CLOSED_SHELL ( 'NONE', ( #105, #176, #70, #55, #125, #167 ) ) ;
#213 = PRODUCT_CONTEXT ( 'NONE', #63, 'mechanical' ) ;
#214 = VERTEX_POINT ( 'NONE', #195 ) ;
ENDSEC;
END-ISO-10303-21;
