ISO-10303-21;
HEADER;
FILE_DESCRIPTION (( 'STEP AP214' ),
    '1' );
FILE_NAME ('841.142.250C.STEP',
    '2024-06-20T05:20:48',
    ( '' ),
    ( '' ),
    'SwSTEP 2.0',
    'SolidWorks 2022',
    '' );
FILE_SCHEMA (( 'AUTOMOTIVE_DESIGN' ));
ENDSEC;

DATA;
#1 =( LENGTH_UNIT ( ) NAMED_UNIT ( * ) SI_UNIT ( .MILLI., .METRE. ) );
#2 = ORIENTED_EDGE ( 'NONE', *, *, #126, .T. ) ;
#3 = PRESENTATION_STYLE_ASSIGNMENT (( #107 ) ) ;
#4 = VERTEX_POINT ( 'NONE', #74 ) ;
#5 = LINE ( 'NONE', #32, #233 ) ;
#6 = VECTOR ( 'NONE', #12, 1000.000000000000227 ) ;
#7 = CARTESIAN_POINT ( 'NONE',  ( 0.000000000000000000, 3.245314017740484976E-16, -2.649999999999999023 ) ) ;
#8 = DIRECTION ( 'NONE',  ( 0.000000000000000000, 0.000000000000000000, -1.000000000000000000 ) ) ;
#9 = EDGE_CURVE ( 'NONE', #73, #157, #5, .T. ) ;
#10 = DIRECTION ( 'NONE',  ( -1.000000000000000000, 0.000000000000000000, 0.000000000000000000 ) ) ;
#11 = ORIENTED_EDGE ( 'NONE', *, *, #9, .T. ) ;
#12 = DIRECTION ( 'NONE',  ( -0.1008641710789470458, 1.218401352191157545E-16, -0.9949002055445343995 ) ) ;
#13 = DIRECTION ( 'NONE',  ( 0.000000000000000000, 0.000000000000000000, -1.000000000000000000 ) ) ;
#14 = PRODUCT_RELATED_PRODUCT_CATEGORY ( 'part', '', ( #98 ) ) ;
#15 =( NAMED_UNIT ( * ) PLANE_ANGLE_UNIT ( ) SI_UNIT ( $, .RADIAN. ) );
#16 = ADVANCED_FACE ( 'NONE', ( #154 ), #53, .T. ) ;
#17 = CARTESIAN_POINT ( 'NONE',  ( 7.206746031746035897, 3.245314017740484976E-16, 2.649999999999999023 ) ) ;
#18 = DIRECTION ( 'NONE',  ( 1.000000000000000000, -0.000000000000000000, -0.000000000000000000 ) ) ;
#19 = FILL_AREA_STYLE ('',( #204 ) ) ;
#20 = ORIENTED_EDGE ( 'NONE', *, *, #155, .F. ) ;
#21 = AXIS2_PLACEMENT_3D ( 'NONE', #246, #207, #8 ) ;
#22 = ORIENTED_EDGE ( 'NONE', *, *, #106, .F. ) ;
#23 = EDGE_CURVE ( 'NONE', #35, #4, #190, .T. ) ;
#24 = SURFACE_STYLE_FILL_AREA ( #163 ) ;
#25 = DIRECTION ( 'NONE',  ( 1.000000000000000000, -0.000000000000000000, -0.000000000000000000 ) ) ;
#26 = AXIS2_PLACEMENT_3D ( 'NONE', #182, #144, #196 ) ;
#27 = ORIENTED_EDGE ( 'NONE', *, *, #126, .F. ) ;
#28 = ORIENTED_EDGE ( 'NONE', *, *, #209, .T. ) ;
#29 = PRESENTATION_LAYER_ASSIGNMENT (  '', '', ( #180 ) ) ;
#30 = DIRECTION ( 'NONE',  ( 0.000000000000000000, 0.000000000000000000, -1.000000000000000000 ) ) ;
#31 = CLOSED_SHELL ( 'NONE', ( #236, #65, #70, #195, #96, #177, #16, #49 ) ) ;
#32 = CARTESIAN_POINT ( 'NONE',  ( 0.000000000000000000, 0.000000000000000000, 2.649999999999999023 ) ) ;
#33 = CIRCLE ( 'NONE', #162, 2.649999999999999023 ) ;
#34 = DIRECTION ( 'NONE',  ( 0.000000000000000000, 0.000000000000000000, -1.000000000000000000 ) ) ;
#35 = VERTEX_POINT ( 'NONE', #56 ) ;
#36 = LINE ( 'NONE', #99, #248 ) ;
#37 = EDGE_CURVE ( 'NONE', #109, #247, #101, .T. ) ;
#38 = CARTESIAN_POINT ( 'NONE',  ( -0.6499999999999995781, 0.000000000000000000, 4.599999999999998757 ) ) ;
#39 = DIRECTION ( 'NONE',  ( 1.000000000000000000, 0.000000000000000000, 0.000000000000000000 ) ) ;
#40 = CIRCLE ( 'NONE', #26, 4.599999999999997868 ) ;
#41 = EDGE_CURVE ( 'NONE', #188, #175, #208, .T. ) ;
#42 = DIRECTION ( 'NONE',  ( -0.1008641710789470458, 0.000000000000000000, 0.9949002055445343995 ) ) ;
#43 = FACE_OUTER_BOUND ( 'NONE', #244, .T. ) ;
#44 = AXIS2_PLACEMENT_3D ( 'NONE', #241, #68, #39 ) ;
#45 = SURFACE_SIDE_STYLE ('',( #83 ) ) ;
#46 = ORIENTED_EDGE ( 'NONE', *, *, #123, .T. ) ;
#47 = AXIS2_PLACEMENT_3D ( 'NONE', #116, #158, #138 ) ;
#48 = CARTESIAN_POINT ( 'NONE',  ( -0.6499999999999995781, 0.000000000000000000, 4.599999999999998757 ) ) ;
#49 = ADVANCED_FACE ( 'NONE', ( #228 ), #129, .T. ) ;
#50 = EDGE_LOOP ( 'NONE', ( #206, #136, #28, #20 ) ) ;
#51 = ORIENTED_EDGE ( 'NONE', *, *, #192, .F. ) ;
#52 = STYLED_ITEM ( 'NONE', ( #108 ), #223 ) ;
#53 = CYLINDRICAL_SURFACE ( 'NONE', #47, 4.599999999999997868 ) ;
#54 = CIRCLE ( 'NONE', #62, 4.599999999999997868 ) ;
#55 = ORIENTED_EDGE ( 'NONE', *, *, #225, .F. ) ;
#56 = CARTESIAN_POINT ( 'NONE',  ( -0.4523066710532073209, 3.245314017740484976E-16, 2.649999999999999023 ) ) ;
#57 = EDGE_LOOP ( 'NONE', ( #51, #105, #229, #2 ) ) ;
#58 = EDGE_LOOP ( 'NONE', ( #187, #250, #55, #79 ) ) ;
#59 = DIRECTION ( 'NONE',  ( 1.000000000000000000, -0.000000000000000000, -0.000000000000000000 ) ) ;
#60 = COLOUR_RGB ( '',0.7529411764705882248, 0.7529411764705882248, 0.7529411764705882248 ) ;
#61 = EDGE_CURVE ( 'NONE', #4, #35, #135, .T. ) ;
#62 = AXIS2_PLACEMENT_3D ( 'NONE', #127, #198, #13 ) ;
#63 = CARTESIAN_POINT ( 'NONE',  ( -0.6499999999999995781, 5.633375276077823126E-16, -4.599999999999998757 ) ) ;
#64 = LINE ( 'NONE', #85, #84 ) ;
#65 = ADVANCED_FACE ( 'NONE', ( #115 ), #117, .T. ) ;
#66 = SURFACE_STYLE_USAGE ( .BOTH. , #45 ) ;
#67 = ADVANCED_BREP_SHAPE_REPRESENTATION ( '841.142.250C', ( #223, #44 ), #139 ) ;
#68 = DIRECTION ( 'NONE',  ( 0.000000000000000000, 0.000000000000000000, 1.000000000000000000 ) ) ;
#69 = FACE_OUTER_BOUND ( 'NONE', #245, .T. ) ;
#70 = ADVANCED_FACE ( 'NONE', ( #93 ), #89, .F. ) ;
#71 = ORIENTED_EDGE ( 'NONE', *, *, #37, .F. ) ;
#72 = PRODUCT_DEFINITION_CONTEXT ( 'detailed design', #110, 'design' ) ;
#73 = VERTEX_POINT ( 'NONE', #232 ) ;
#74 = CARTESIAN_POINT ( 'NONE',  ( -0.4523066710532073209, 0.000000000000000000, -2.649999999999999023 ) ) ;
#75 = EDGE_CURVE ( 'NONE', #4, #188, #119, .T. ) ;
#76 = CIRCLE ( 'NONE', #205, 2.649999999999999023 ) ;
#77 = CARTESIAN_POINT ( 'NONE',  ( -0.4523066710532073209, 0.000000000000000000, 0.000000000000000000 ) ) ;
#78 = ORIENTED_EDGE ( 'NONE', *, *, #41, .T. ) ;
#79 = ORIENTED_EDGE ( 'NONE', *, *, #137, .F. ) ;
#80 = FACE_OUTER_BOUND ( 'NONE', #212, .T. ) ;
#81 = AXIS2_PLACEMENT_3D ( 'NONE', #118, #194, #30 ) ;
#82 = LINE ( 'NONE', #17, #94 ) ;
#83 = SURFACE_STYLE_FILL_AREA ( #19 ) ;
#84 = VECTOR ( 'NONE', #148, 1000.000000000000000 ) ;
#85 = CARTESIAN_POINT ( 'NONE',  ( 7.206746031746035897, 0.000000000000000000, -4.599999999999997868 ) ) ;
#86 = ORIENTED_EDGE ( 'NONE', *, *, #254, .F. ) ;
#87 =( NAMED_UNIT ( * ) SI_UNIT ( $, .STERADIAN. ) SOLID_ANGLE_UNIT ( ) );
#88 = ORIENTED_EDGE ( 'NONE', *, *, #61, .T. ) ;
#89 = CONICAL_SURFACE ( 'NONE', #149, 4.599999999999998757, 1.469760343000857672 ) ;
#90 = UNCERTAINTY_MEASURE_WITH_UNIT (LENGTH_MEASURE( 1.000000000000000082E-05 ), #168, 'distance_accuracy_value', 'NONE');
#91 = DIRECTION ( 'NONE',  ( 1.000000000000000000, -0.000000000000000000, -0.000000000000000000 ) ) ;
#92 = MECHANICAL_DESIGN_GEOMETRIC_PRESENTATION_REPRESENTATION (  '', ( #52 ), #166 ) ;
#93 = FACE_OUTER_BOUND ( 'NONE', #58, .T. ) ;
#94 = VECTOR ( 'NONE', #221, 1000.000000000000000 ) ;
#95 = ORIENTED_EDGE ( 'NONE', *, *, #254, .T. ) ;
#96 = ADVANCED_FACE ( 'NONE', ( #143 ), #140, .F. ) ;
#97 = ORIENTED_EDGE ( 'NONE', *, *, #209, .F. ) ;
#98 = PRODUCT ( '841.142.250C', '841.142.250C', '', ( #216 ) ) ;
#99 = CARTESIAN_POINT ( 'NONE',  ( 7.206746031746035897, 5.633375276077822140E-16, 4.599999999999997868 ) ) ;
#100 = CARTESIAN_POINT ( 'NONE',  ( -0.6499999999999995781, 5.633375276077823126E-16, -4.599999999999998757 ) ) ;
#101 = CIRCLE ( 'NONE', #211, 4.599999999999998757 ) ;
#102 = DIRECTION ( 'NONE',  ( 0.000000000000000000, 0.000000000000000000, -1.000000000000000000 ) ) ;
#103 = LINE ( 'NONE', #100, #6 ) ;
#104 = CARTESIAN_POINT ( 'NONE',  ( 0.000000000000000000, 0.000000000000000000, 0.000000000000000000 ) ) ;
#105 = ORIENTED_EDGE ( 'NONE', *, *, #61, .F. ) ;
#106 = EDGE_CURVE ( 'NONE', #4, #109, #103, .T. ) ;
#107 = SURFACE_STYLE_USAGE ( .BOTH. , #130 ) ;
#108 = PRESENTATION_STYLE_ASSIGNMENT (( #66 ) ) ;
#109 = VERTEX_POINT ( 'NONE', #63 ) ;
#110 = APPLICATION_CONTEXT ( 'automotive_design' ) ;
#111 = UNCERTAINTY_MEASURE_WITH_UNIT (LENGTH_MEASURE( 1.000000000000000082E-05 ), #1, 'distance_accuracy_value', 'NONE');
#112 = ORIENTED_EDGE ( 'NONE', *, *, #41, .F. ) ;
#113 = MECHANICAL_DESIGN_GEOMETRIC_PRESENTATION_REPRESENTATION (  '', ( #180 ), #170 ) ;
#114 = EDGE_CURVE ( 'NONE', #175, #157, #40, .T. ) ;
#115 = FACE_OUTER_BOUND ( 'NONE', #174, .T. ) ;
#116 = CARTESIAN_POINT ( 'NONE',  ( 7.206746031746035897, 0.000000000000000000, 0.000000000000000000 ) ) ;
#117 = CYLINDRICAL_SURFACE ( 'NONE', #21, 4.599999999999997868 ) ;
#118 = CARTESIAN_POINT ( 'NONE',  ( -0.4523066710532073209, 0.000000000000000000, 0.000000000000000000 ) ) ;
#119 = LINE ( 'NONE', #199, #202 ) ;
#120 = AXIS2_PLACEMENT_3D ( 'NONE', #239, #25, #125 ) ;
#121 = CARTESIAN_POINT ( 'NONE',  ( 0.000000000000000000, 0.000000000000000000, 0.000000000000000000 ) ) ;
#122 = SHAPE_DEFINITION_REPRESENTATION ( #197, #67 ) ;
#123 = EDGE_CURVE ( 'NONE', #247, #157, #36, .T. ) ;
#124 = APPLICATION_PROTOCOL_DEFINITION ( 'draft international standard', 'automotive_design', 1998, #110 ) ;
#125 = DIRECTION ( 'NONE',  ( 0.000000000000000000, 0.000000000000000000, -1.000000000000000000 ) ) ;
#126 = EDGE_CURVE ( 'NONE', #188, #73, #76, .T. ) ;
#127 = CARTESIAN_POINT ( 'NONE',  ( -0.1976933289467930621, 0.000000000000000000, 0.000000000000000000 ) ) ;
#128 = CARTESIAN_POINT ( 'NONE',  ( 0.000000000000000000, 0.000000000000000000, 0.000000000000000000 ) ) ;
#129 = CONICAL_SURFACE ( 'NONE', #141, 2.649999999999999023, 1.469760343000857228 ) ;
#130 = SURFACE_SIDE_STYLE ('',( #24 ) ) ;
#131 = AXIS2_PLACEMENT_3D ( 'NONE', #161, #184, #145 ) ;
#132 = DIRECTION ( 'NONE',  ( 1.000000000000000000, -0.000000000000000000, -0.000000000000000000 ) ) ;
#133 = AXIS2_PLACEMENT_3D ( 'NONE', #164, #238, #102 ) ;
#134 = ORIENTED_EDGE ( 'NONE', *, *, #9, .F. ) ;
#135 = CIRCLE ( 'NONE', #81, 2.649999999999999023 ) ;
#136 = ORIENTED_EDGE ( 'NONE', *, *, #225, .T. ) ;
#137 = EDGE_CURVE ( 'NONE', #35, #247, #176, .T. ) ;
#138 = DIRECTION ( 'NONE',  ( 0.000000000000000000, 0.000000000000000000, -1.000000000000000000 ) ) ;
#139 =( GEOMETRIC_REPRESENTATION_CONTEXT ( 3 ) GLOBAL_UNCERTAINTY_ASSIGNED_CONTEXT ( ( #111 ) ) GLOBAL_UNIT_ASSIGNED_CONTEXT ( ( #1, #242, #234 ) ) REPRESENTATION_CONTEXT ( 'NONE', 'WORKASPACE' ) );
#140 = CYLINDRICAL_SURFACE ( 'NONE', #253, 2.649999999999999023 ) ;
#141 = AXIS2_PLACEMENT_3D ( 'NONE', #191, #10, #213 ) ;
#142 = APPLICATION_PROTOCOL_DEFINITION ( 'draft international standard', 'automotive_design', 1998, #217 ) ;
#143 = FACE_OUTER_BOUND ( 'NONE', #57, .T. ) ;
#144 = DIRECTION ( 'NONE',  ( 1.000000000000000000, -0.000000000000000000, -0.000000000000000000 ) ) ;
#145 = DIRECTION ( 'NONE',  ( 0.000000000000000000, 0.000000000000000000, 1.000000000000000000 ) ) ;
#146 = COLOUR_RGB ( '',0.7529411764705882248, 0.7529411764705882248, 0.7529411764705882248 ) ;
#147 = ORIENTED_EDGE ( 'NONE', *, *, #155, .T. ) ;
#148 = DIRECTION ( 'NONE',  ( 1.000000000000000000, -0.000000000000000000, -0.000000000000000000 ) ) ;
#149 = AXIS2_PLACEMENT_3D ( 'NONE', #193, #173, #156 ) ;
#150 = AXIS2_PLACEMENT_3D ( 'NONE', #128, #201, #222 ) ;
#151 = PRODUCT_DEFINITION ( 'UNKNOWN', '', #220, #72 ) ;
#152 = ORIENTED_EDGE ( 'NONE', *, *, #37, .T. ) ;
#153 = ORIENTED_EDGE ( 'NONE', *, *, #114, .F. ) ;
#154 = FACE_OUTER_BOUND ( 'NONE', #50, .T. ) ;
#155 = EDGE_CURVE ( 'NONE', #157, #175, #54, .T. ) ;
#156 = DIRECTION ( 'NONE',  ( 0.000000000000000000, 0.000000000000000000, 1.000000000000000000 ) ) ;
#157 = VERTEX_POINT ( 'NONE', #178 ) ;
#158 = DIRECTION ( 'NONE',  ( 1.000000000000000000, -0.000000000000000000, -0.000000000000000000 ) ) ;
#159 = CARTESIAN_POINT ( 'NONE',  ( 7.206746031746035897, 0.000000000000000000, 0.000000000000000000 ) ) ;
#160 = AXIS2_PLACEMENT_3D ( 'NONE', #77, #91, #34 ) ;
#161 = CARTESIAN_POINT ( 'NONE',  ( -0.6499999999999995781, 0.000000000000000000, 0.000000000000000000 ) ) ;
#162 = AXIS2_PLACEMENT_3D ( 'NONE', #104, #181, #167 ) ;
#163 = FILL_AREA_STYLE ('',( #179 ) ) ;
#164 = CARTESIAN_POINT ( 'NONE',  ( 7.206746031746035897, 0.000000000000000000, 0.000000000000000000 ) ) ;
#165 =( NAMED_UNIT ( * ) PLANE_ANGLE_UNIT ( ) SI_UNIT ( $, .RADIAN. ) );
#166 =( GEOMETRIC_REPRESENTATION_CONTEXT ( 3 ) GLOBAL_UNCERTAINTY_ASSIGNED_CONTEXT ( ( #240 ) ) GLOBAL_UNIT_ASSIGNED_CONTEXT ( ( #200, #165, #183 ) ) REPRESENTATION_CONTEXT ( 'NONE', 'WORKASPACE' ) );
#167 = DIRECTION ( 'NONE',  ( 0.000000000000000000, 0.000000000000000000, -1.000000000000000000 ) ) ;
#168 =( LENGTH_UNIT ( ) NAMED_UNIT ( * ) SI_UNIT ( .MILLI., .METRE. ) );
#169 = ORIENTED_EDGE ( 'NONE', *, *, #75, .F. ) ;
#170 =( GEOMETRIC_REPRESENTATION_CONTEXT ( 3 ) GLOBAL_UNCERTAINTY_ASSIGNED_CONTEXT ( ( #90 ) ) GLOBAL_UNIT_ASSIGNED_CONTEXT ( ( #168, #15, #87 ) ) REPRESENTATION_CONTEXT ( 'NONE', 'WORKASPACE' ) );
#171 = ORIENTED_EDGE ( 'NONE', *, *, #137, .T. ) ;
#172 = CARTESIAN_POINT ( 'NONE',  ( -0.6499999999999995781, 0.000000000000000000, 0.000000000000000000 ) ) ;
#173 = DIRECTION ( 'NONE',  ( -1.000000000000000000, 0.000000000000000000, 0.000000000000000000 ) ) ;
#174 = EDGE_LOOP ( 'NONE', ( #152, #46, #153, #97 ) ) ;
#175 = VERTEX_POINT ( 'NONE', #252 ) ;
#176 = LINE ( 'NONE', #38, #185 ) ;
#177 = ADVANCED_FACE ( 'NONE', ( #80 ), #237, .F. ) ;
#178 = CARTESIAN_POINT ( 'NONE',  ( -0.1976933289467930621, 5.633375276077822140E-16, 4.599999999999997868 ) ) ;
#179 = FILL_AREA_STYLE_COLOUR ( '', #146 ) ;
#180 = STYLED_ITEM ( 'NONE', ( #3 ), #67 ) ;
#181 = DIRECTION ( 'NONE',  ( 1.000000000000000000, -0.000000000000000000, -0.000000000000000000 ) ) ;
#182 = CARTESIAN_POINT ( 'NONE',  ( -0.1976933289467930621, 0.000000000000000000, 0.000000000000000000 ) ) ;
#183 =( NAMED_UNIT ( * ) SI_UNIT ( $, .STERADIAN. ) SOLID_ANGLE_UNIT ( ) );
#184 = DIRECTION ( 'NONE',  ( -1.000000000000000000, 0.000000000000000000, 0.000000000000000000 ) ) ;
#185 = VECTOR ( 'NONE', #42, 1000.000000000000227 ) ;
#186 = ORIENTED_EDGE ( 'NONE', *, *, #114, .T. ) ;
#187 = ORIENTED_EDGE ( 'NONE', *, *, #23, .T. ) ;
#188 = VERTEX_POINT ( 'NONE', #219 ) ;
#189 = ORIENTED_EDGE ( 'NONE', *, *, #192, .T. ) ;
#190 = CIRCLE ( 'NONE', #160, 2.649999999999999023 ) ;
#191 = CARTESIAN_POINT ( 'NONE',  ( 0.000000000000000000, 0.000000000000000000, 0.000000000000000000 ) ) ;
#192 = EDGE_CURVE ( 'NONE', #35, #73, #82, .T. ) ;
#193 = CARTESIAN_POINT ( 'NONE',  ( -0.6499999999999995781, 0.000000000000000000, 0.000000000000000000 ) ) ;
#194 = DIRECTION ( 'NONE',  ( 1.000000000000000000, -0.000000000000000000, -0.000000000000000000 ) ) ;
#195 = ADVANCED_FACE ( 'NONE', ( #43 ), #224, .F. ) ;
#196 = DIRECTION ( 'NONE',  ( 0.000000000000000000, 0.000000000000000000, -1.000000000000000000 ) ) ;
#197 = PRODUCT_DEFINITION_SHAPE ( 'NONE', 'NONE',  #151 ) ;
#198 = DIRECTION ( 'NONE',  ( 1.000000000000000000, -0.000000000000000000, -0.000000000000000000 ) ) ;
#199 = CARTESIAN_POINT ( 'NONE',  ( 7.206746031746035897, 0.000000000000000000, -2.649999999999999023 ) ) ;
#200 =( LENGTH_UNIT ( ) NAMED_UNIT ( * ) SI_UNIT ( .MILLI., .METRE. ) );
#201 = DIRECTION ( 'NONE',  ( -1.000000000000000000, 0.000000000000000000, 0.000000000000000000 ) ) ;
#202 = VECTOR ( 'NONE', #18, 1000.000000000000000 ) ;
#203 = PRESENTATION_LAYER_ASSIGNMENT (  '', '', ( #52 ) ) ;
#204 = FILL_AREA_STYLE_COLOUR ( '', #60 ) ;
#205 = AXIS2_PLACEMENT_3D ( 'NONE', #121, #218, #215 ) ;
#206 = ORIENTED_EDGE ( 'NONE', *, *, #123, .F. ) ;
#207 = DIRECTION ( 'NONE',  ( 1.000000000000000000, -0.000000000000000000, -0.000000000000000000 ) ) ;
#208 = LINE ( 'NONE', #7, #243 ) ;
#209 = EDGE_CURVE ( 'NONE', #109, #175, #64, .T. ) ;
#210 = EDGE_LOOP ( 'NONE', ( #112, #86, #11, #147 ) ) ;
#211 = AXIS2_PLACEMENT_3D ( 'NONE', #172, #132, #231 ) ;
#212 = EDGE_LOOP ( 'NONE', ( #22, #88, #171, #71 ) ) ;
#213 = DIRECTION ( 'NONE',  ( 0.000000000000000000, 0.000000000000000000, 1.000000000000000000 ) ) ;
#214 = DIRECTION ( 'NONE',  ( 0.000000000000000000, 0.000000000000000000, -1.000000000000000000 ) ) ;
#215 = DIRECTION ( 'NONE',  ( 0.000000000000000000, 0.000000000000000000, -1.000000000000000000 ) ) ;
#216 = PRODUCT_CONTEXT ( 'NONE', #217, 'mechanical' ) ;
#217 = APPLICATION_CONTEXT ( 'automotive_design' ) ;
#218 = DIRECTION ( 'NONE',  ( 1.000000000000000000, -0.000000000000000000, -0.000000000000000000 ) ) ;
#219 = CARTESIAN_POINT ( 'NONE',  ( 0.000000000000000000, 0.000000000000000000, -2.649999999999999023 ) ) ;
#220 = PRODUCT_DEFINITION_FORMATION_WITH_SPECIFIED_SOURCE ( 'ANY', '', #98, .NOT_KNOWN. ) ;
#221 = DIRECTION ( 'NONE',  ( 1.000000000000000000, -0.000000000000000000, -0.000000000000000000 ) ) ;
#222 = DIRECTION ( 'NONE',  ( 0.000000000000000000, 0.000000000000000000, 1.000000000000000000 ) ) ;
#223 = MANIFOLD_SOLID_BREP ( 'Rotation1', #31 ) ;
#224 = CYLINDRICAL_SURFACE ( 'NONE', #133, 2.649999999999999023 ) ;
#225 = EDGE_CURVE ( 'NONE', #247, #109, #226, .T. ) ;
#226 = CIRCLE ( 'NONE', #120, 4.599999999999998757 ) ;
#227 = DIRECTION ( 'NONE',  ( -0.1008641710789474899, 0.000000000000000000, 0.9949002055445343995 ) ) ;
#228 = FACE_OUTER_BOUND ( 'NONE', #210, .T. ) ;
#229 = ORIENTED_EDGE ( 'NONE', *, *, #75, .T. ) ;
#230 = DIRECTION ( 'NONE',  ( -0.1008641710789474899, 1.218401352191157545E-16, -0.9949002055445343995 ) ) ;
#231 = DIRECTION ( 'NONE',  ( 0.000000000000000000, 0.000000000000000000, -1.000000000000000000 ) ) ;
#232 = CARTESIAN_POINT ( 'NONE',  ( 0.000000000000000000, 3.245314017740484976E-16, 2.649999999999999023 ) ) ;
#233 = VECTOR ( 'NONE', #227, 1000.000000000000227 ) ;
#234 =( NAMED_UNIT ( * ) SI_UNIT ( $, .STERADIAN. ) SOLID_ANGLE_UNIT ( ) );
#235 = CONICAL_SURFACE ( 'NONE', #150, 2.649999999999999023, 1.469760343000857228 ) ;
#236 = ADVANCED_FACE ( 'NONE', ( #69 ), #235, .T. ) ;
#237 = CONICAL_SURFACE ( 'NONE', #131, 4.599999999999998757, 1.469760343000857672 ) ;
#238 = DIRECTION ( 'NONE',  ( 1.000000000000000000, -0.000000000000000000, -0.000000000000000000 ) ) ;
#239 = CARTESIAN_POINT ( 'NONE',  ( -0.6499999999999995781, 0.000000000000000000, 0.000000000000000000 ) ) ;
#240 = UNCERTAINTY_MEASURE_WITH_UNIT (LENGTH_MEASURE( 1.000000000000000082E-05 ), #200, 'distance_accuracy_value', 'NONE');
#241 = CARTESIAN_POINT ( 'NONE',  ( 0.000000000000000000, 0.000000000000000000, 0.000000000000000000 ) ) ;
#242 =( NAMED_UNIT ( * ) PLANE_ANGLE_UNIT ( ) SI_UNIT ( $, .RADIAN. ) );
#243 = VECTOR ( 'NONE', #230, 1000.000000000000227 ) ;
#244 = EDGE_LOOP ( 'NONE', ( #249, #189, #95, #169 ) ) ;
#245 = EDGE_LOOP ( 'NONE', ( #27, #78, #186, #134 ) ) ;
#246 = CARTESIAN_POINT ( 'NONE',  ( 7.206746031746035897, 0.000000000000000000, 0.000000000000000000 ) ) ;
#247 = VERTEX_POINT ( 'NONE', #48 ) ;
#248 = VECTOR ( 'NONE', #59, 1000.000000000000000 ) ;
#249 = ORIENTED_EDGE ( 'NONE', *, *, #23, .F. ) ;
#250 = ORIENTED_EDGE ( 'NONE', *, *, #106, .T. ) ;
#251 = DIRECTION ( 'NONE',  ( 1.000000000000000000, -0.000000000000000000, -0.000000000000000000 ) ) ;
#252 = CARTESIAN_POINT ( 'NONE',  ( -0.1976933289467930621, 0.000000000000000000, -4.599999999999997868 ) ) ;
#253 = AXIS2_PLACEMENT_3D ( 'NONE', #159, #251, #214 ) ;
#254 = EDGE_CURVE ( 'NONE', #73, #188, #33, .T. ) ;
ENDSEC;
END-ISO-10303-21;
