ISO-10303-21;
HEADER;
FILE_DESCRIPTION (( 'STEP AP214' ),
    '1' );
FILE_NAME ('841.142.250.STEP',
    '2024-06-20T05:19:55',
    ( '' ),
    ( '' ),
    'SwSTEP 2.0',
    'SolidWorks 2022',
    '' );
FILE_SCHEMA (( 'AUTOMOTIVE_DESIGN' ));
ENDSEC;

DATA;
#1 = DIRECTION ( 'NONE',  ( 0.000000000000000000, 0.000000000000000000, -1.000000000000000000 ) ) ;
#2 = CYLINDRICAL_SURFACE ( 'NONE', #176, 2.649999999999999023 ) ;
#3 = EDGE_CURVE ( 'NONE', #223, #129, #128, .T. ) ;
#4 = AXIS2_PLACEMENT_3D ( 'NONE', #122, #163, #239 ) ;
#5 = VERTEX_POINT ( 'NONE', #222 ) ;
#6 = DIRECTION ( 'NONE',  ( 0.000000000000000000, 0.000000000000000000, 1.000000000000000000 ) ) ;
#7 = ORIENTED_EDGE ( 'NONE', *, *, #82, .T. ) ;
#8 = EDGE_CURVE ( 'NONE', #114, #132, #184, .T. ) ;
#9 = ORIENTED_EDGE ( 'NONE', *, *, #227, .F. ) ;
#10 = CARTESIAN_POINT ( 'NONE',  ( -0.6499999999999995781, 0.000000000000000000, 4.599999999999998757 ) ) ;
#11 = ORIENTED_EDGE ( 'NONE', *, *, #146, .F. ) ;
#12 = DIRECTION ( 'NONE',  ( 1.000000000000000000, -0.000000000000000000, -0.000000000000000000 ) ) ;
#13 = VECTOR ( 'NONE', #177, 1000.000000000000227 ) ;
#14 = AXIS2_PLACEMENT_3D ( 'NONE', #52, #29, #165 ) ;
#15 = DIRECTION ( 'NONE',  ( 1.000000000000000000, -0.000000000000000000, -0.000000000000000000 ) ) ;
#16 = EDGE_CURVE ( 'NONE', #5, #167, #170, .T. ) ;
#17 = CARTESIAN_POINT ( 'NONE',  ( -0.6499999999999995781, 0.000000000000000000, 0.000000000000000000 ) ) ;
#18 =( NAMED_UNIT ( * ) SI_UNIT ( $, .STERADIAN. ) SOLID_ANGLE_UNIT ( ) );
#19 = VECTOR ( 'NONE', #216, 1000.000000000000227 ) ;
#20 = DIRECTION ( 'NONE',  ( 1.000000000000000000, -0.000000000000000000, -0.000000000000000000 ) ) ;
#21 =( NAMED_UNIT ( * ) SI_UNIT ( $, .STERADIAN. ) SOLID_ANGLE_UNIT ( ) );
#22 = APPLICATION_PROTOCOL_DEFINITION ( 'draft international standard', 'automotive_design', 1998, #151 ) ;
#23 = EDGE_CURVE ( 'NONE', #114, #5, #248, .T. ) ;
#24 = AXIS2_PLACEMENT_3D ( 'NONE', #135, #179, #160 ) ;
#25 = PRODUCT_DEFINITION_FORMATION_WITH_SPECIFIED_SOURCE ( 'ANY', '', #97, .NOT_KNOWN. ) ;
#26 = AXIS2_PLACEMENT_3D ( 'NONE', #147, #115, #71 ) ;
#27 = ORIENTED_EDGE ( 'NONE', *, *, #82, .F. ) ;
#28 = ORIENTED_EDGE ( 'NONE', *, *, #121, .F. ) ;
#29 = DIRECTION ( 'NONE',  ( 1.000000000000000000, -0.000000000000000000, -0.000000000000000000 ) ) ;
#30 = CONICAL_SURFACE ( 'NONE', #4, 2.649999999999999023, 1.469760343000857228 ) ;
#31 = EDGE_LOOP ( 'NONE', ( #206, #207, #55, #28 ) ) ;
#32 = PRODUCT_DEFINITION_CONTEXT ( 'detailed design', #164, 'design' ) ;
#33 = DIRECTION ( 'NONE',  ( -0.1008641710789470458, 0.000000000000000000, 0.9949002055445343995 ) ) ;
#34 = SURFACE_SIDE_STYLE ('',( #41 ) ) ;
#35 = CARTESIAN_POINT ( 'NONE',  ( -0.6499999999999995781, 5.633375276077823126E-16, -4.599999999999998757 ) ) ;
#36 = AXIS2_PLACEMENT_3D ( 'NONE', #189, #12, #148 ) ;
#37 = EDGE_CURVE ( 'NONE', #167, #132, #65, .T. ) ;
#38 = DIRECTION ( 'NONE',  ( 0.000000000000000000, 0.000000000000000000, 1.000000000000000000 ) ) ;
#39 =( LENGTH_UNIT ( ) NAMED_UNIT ( * ) SI_UNIT ( .MILLI., .METRE. ) );
#40 = EDGE_CURVE ( 'NONE', #5, #114, #81, .T. ) ;
#41 = SURFACE_STYLE_FILL_AREA ( #137 ) ;
#42 = COLOUR_RGB ( '',0.7529411764705882248, 0.7529411764705882248, 0.7529411764705882248 ) ;
#43 = STYLED_ITEM ( 'NONE', ( #228 ), #161 ) ;
#44 = SURFACE_STYLE_USAGE ( .BOTH. , #142 ) ;
#45 = ADVANCED_FACE ( 'NONE', ( #193 ), #70, .F. ) ;
#46 = PRESENTATION_STYLE_ASSIGNMENT (( #44 ) ) ;
#47 = DIRECTION ( 'NONE',  ( 0.000000000000000000, 0.000000000000000000, 1.000000000000000000 ) ) ;
#48 = ORIENTED_EDGE ( 'NONE', *, *, #195, .F. ) ;
#49 = AXIS2_PLACEMENT_3D ( 'NONE', #50, #130, #204 ) ;
#50 = CARTESIAN_POINT ( 'NONE',  ( -0.4523066710532073209, 0.000000000000000000, 0.000000000000000000 ) ) ;
#51 = AXIS2_PLACEMENT_3D ( 'NONE', #202, #20, #1 ) ;
#52 = CARTESIAN_POINT ( 'NONE',  ( 0.000000000000000000, 0.000000000000000000, 0.000000000000000000 ) ) ;
#53 = DIRECTION ( 'NONE',  ( 1.000000000000000000, 0.000000000000000000, 0.000000000000000000 ) ) ;
#54 = EDGE_LOOP ( 'NONE', ( #203, #225, #74, #183 ) ) ;
#55 = ORIENTED_EDGE ( 'NONE', *, *, #3, .T. ) ;
#56 =( NAMED_UNIT ( * ) PLANE_ANGLE_UNIT ( ) SI_UNIT ( $, .RADIAN. ) );
#57 = PRODUCT_RELATED_PRODUCT_CATEGORY ( 'part', '', ( #97 ) ) ;
#58 = DIRECTION ( 'NONE',  ( 1.000000000000000000, -0.000000000000000000, -0.000000000000000000 ) ) ;
#59 = CARTESIAN_POINT ( 'NONE',  ( 7.206746031746035897, 0.000000000000000000, -4.599999999999997868 ) ) ;
#60 = DIRECTION ( 'NONE',  ( -1.000000000000000000, 0.000000000000000000, 0.000000000000000000 ) ) ;
#61 = FACE_OUTER_BOUND ( 'NONE', #144, .T. ) ;
#62 = ADVANCED_BREP_SHAPE_REPRESENTATION ( '841.142.250', ( #161, #226 ), #197 ) ;
#63 = AXIS2_PLACEMENT_3D ( 'NONE', #173, #15, #175 ) ;
#64 = UNCERTAINTY_MEASURE_WITH_UNIT (LENGTH_MEASURE( 1.000000000000000082E-05 ), #39, 'distance_accuracy_value', 'NONE');
#65 = CIRCLE ( 'NONE', #36, 4.599999999999998757 ) ;
#66 =( NAMED_UNIT ( * ) PLANE_ANGLE_UNIT ( ) SI_UNIT ( $, .RADIAN. ) );
#67 = CONICAL_SURFACE ( 'NONE', #98, 4.599999999999998757, 1.469760343000857672 ) ;
#68 = ORIENTED_EDGE ( 'NONE', *, *, #227, .T. ) ;
#69 = DIRECTION ( 'NONE',  ( -0.1008641710789470458, 1.218401352191157545E-16, -0.9949002055445343995 ) ) ;
#70 = CONICAL_SURFACE ( 'NONE', #104, 4.599999999999998757, 1.469760343000857672 ) ;
#71 = DIRECTION ( 'NONE',  ( 0.000000000000000000, 0.000000000000000000, -1.000000000000000000 ) ) ;
#72 = SHAPE_DEFINITION_REPRESENTATION ( #157, #62 ) ;
#73 = ORIENTED_EDGE ( 'NONE', *, *, #118, .T. ) ;
#74 = ORIENTED_EDGE ( 'NONE', *, *, #37, .F. ) ;
#75 = PRESENTATION_LAYER_ASSIGNMENT (  '', '', ( #208 ) ) ;
#76 = EDGE_CURVE ( 'NONE', #132, #167, #180, .T. ) ;
#77 = CARTESIAN_POINT ( 'NONE',  ( 0.000000000000000000, 0.000000000000000000, 2.649999999999999023 ) ) ;
#78 = CARTESIAN_POINT ( 'NONE',  ( 0.000000000000000000, 0.000000000000000000, 0.000000000000000000 ) ) ;
#79 = CARTESIAN_POINT ( 'NONE',  ( 7.206746031746035897, 3.245314017740484976E-16, 2.649999999999999023 ) ) ;
#80 = DIRECTION ( 'NONE',  ( -1.000000000000000000, 0.000000000000000000, 0.000000000000000000 ) ) ;
#81 = CIRCLE ( 'NONE', #49, 2.649999999999999023 ) ;
#82 = EDGE_CURVE ( 'NONE', #167, #244, #246, .T. ) ;
#83 = DIRECTION ( 'NONE',  ( 1.000000000000000000, -0.000000000000000000, -0.000000000000000000 ) ) ;
#84 = FACE_OUTER_BOUND ( 'NONE', #243, .T. ) ;
#85 = ADVANCED_FACE ( 'NONE', ( #61 ), #116, .T. ) ;
#86 = ORIENTED_EDGE ( 'NONE', *, *, #195, .T. ) ;
#87 = ORIENTED_EDGE ( 'NONE', *, *, #245, .T. ) ;
#88 = EDGE_LOOP ( 'NONE', ( #27, #168, #109, #224 ) ) ;
#89 = ORIENTED_EDGE ( 'NONE', *, *, #76, .F. ) ;
#90 = EDGE_LOOP ( 'NONE', ( #9, #87, #188, #48 ) ) ;
#91 = DIRECTION ( 'NONE',  ( 1.000000000000000000, -0.000000000000000000, -0.000000000000000000 ) ) ;
#92 = CLOSED_SHELL ( 'NONE', ( #254, #162, #45, #210, #232, #234, #102, #85 ) ) ;
#93 = CIRCLE ( 'NONE', #236, 2.649999999999999023 ) ;
#94 = DIRECTION ( 'NONE',  ( 1.000000000000000000, -0.000000000000000000, -0.000000000000000000 ) ) ;
#95 = MECHANICAL_DESIGN_GEOMETRIC_PRESENTATION_REPRESENTATION (  '', ( #43 ), #134 ) ;
#96 = CARTESIAN_POINT ( 'NONE',  ( -0.1976933289467930621, 0.000000000000000000, 0.000000000000000000 ) ) ;
#97 = PRODUCT ( '841.142.250', '841.142.250', '', ( #186 ) ) ;
#98 = AXIS2_PLACEMENT_3D ( 'NONE', #140, #141, #47 ) ;
#99 = FACE_OUTER_BOUND ( 'NONE', #149, .T. ) ;
#100 = CARTESIAN_POINT ( 'NONE',  ( 0.000000000000000000, 3.245314017740484976E-16, -2.649999999999999023 ) ) ;
#101 = FACE_OUTER_BOUND ( 'NONE', #90, .T. ) ;
#102 = ADVANCED_FACE ( 'NONE', ( #133 ), #172, .T. ) ;
#103 = SURFACE_STYLE_FILL_AREA ( #199 ) ;
#104 = AXIS2_PLACEMENT_3D ( 'NONE', #17, #60, #38 ) ;
#105 = FACE_OUTER_BOUND ( 'NONE', #31, .T. ) ;
#106 = FACE_OUTER_BOUND ( 'NONE', #209, .T. ) ;
#107 = ORIENTED_EDGE ( 'NONE', *, *, #16, .T. ) ;
#108 = VECTOR ( 'NONE', #69, 1000.000000000000227 ) ;
#109 = ORIENTED_EDGE ( 'NONE', *, *, #146, .T. ) ;
#110 = ORIENTED_EDGE ( 'NONE', *, *, #23, .T. ) ;
#111 = PRESENTATION_LAYER_ASSIGNMENT (  '', '', ( #43 ) ) ;
#112 = ORIENTED_EDGE ( 'NONE', *, *, #191, .F. ) ;
#113 = UNCERTAINTY_MEASURE_WITH_UNIT (LENGTH_MEASURE( 1.000000000000000082E-05 ), #123, 'distance_accuracy_value', 'NONE');
#114 = VERTEX_POINT ( 'NONE', #252 ) ;
#115 = DIRECTION ( 'NONE',  ( 1.000000000000000000, -0.000000000000000000, -0.000000000000000000 ) ) ;
#116 = CONICAL_SURFACE ( 'NONE', #213, 2.649999999999999023, 1.469760343000857228 ) ;
#117 = DIRECTION ( 'NONE',  ( 0.000000000000000000, 0.000000000000000000, 1.000000000000000000 ) ) ;
#118 = EDGE_CURVE ( 'NONE', #244, #131, #139, .T. ) ;
#119 = DIRECTION ( 'NONE',  ( 0.000000000000000000, 0.000000000000000000, -1.000000000000000000 ) ) ;
#120 = VECTOR ( 'NONE', #33, 1000.000000000000227 ) ;
#121 = EDGE_CURVE ( 'NONE', #114, #129, #153, .T. ) ;
#122 = CARTESIAN_POINT ( 'NONE',  ( 0.000000000000000000, 0.000000000000000000, 0.000000000000000000 ) ) ;
#123 =( LENGTH_UNIT ( ) NAMED_UNIT ( * ) SI_UNIT ( .MILLI., .METRE. ) );
#124 =( LENGTH_UNIT ( ) NAMED_UNIT ( * ) SI_UNIT ( .MILLI., .METRE. ) );
#125 = AXIS2_PLACEMENT_3D ( 'NONE', #249, #91, #119 ) ;
#126 = ORIENTED_EDGE ( 'NONE', *, *, #245, .F. ) ;
#127 = VECTOR ( 'NONE', #158, 1000.000000000000000 ) ;
#128 = CIRCLE ( 'NONE', #14, 2.649999999999999023 ) ;
#129 = VERTEX_POINT ( 'NONE', #251 ) ;
#130 = DIRECTION ( 'NONE',  ( 1.000000000000000000, -0.000000000000000000, -0.000000000000000000 ) ) ;
#131 = VERTEX_POINT ( 'NONE', #155 ) ;
#132 = VERTEX_POINT ( 'NONE', #35 ) ;
#133 = FACE_OUTER_BOUND ( 'NONE', #88, .T. ) ;
#134 =( GEOMETRIC_REPRESENTATION_CONTEXT ( 3 ) GLOBAL_UNCERTAINTY_ASSIGNED_CONTEXT ( ( #64 ) ) GLOBAL_UNIT_ASSIGNED_CONTEXT ( ( #39, #56, #18 ) ) REPRESENTATION_CONTEXT ( 'NONE', 'WORKASPACE' ) );
#135 = CARTESIAN_POINT ( 'NONE',  ( -0.1976933289467930621, 0.000000000000000000, 0.000000000000000000 ) ) ;
#136 = DIRECTION ( 'NONE',  ( 1.000000000000000000, -0.000000000000000000, -0.000000000000000000 ) ) ;
#137 = FILL_AREA_STYLE ('',( #156 ) ) ;
#138 = CARTESIAN_POINT ( 'NONE',  ( 0.000000000000000000, 3.245314017740484976E-16, 2.649999999999999023 ) ) ;
#139 = CIRCLE ( 'NONE', #205, 4.599999999999997868 ) ;
#140 = CARTESIAN_POINT ( 'NONE',  ( -0.6499999999999995781, 0.000000000000000000, 0.000000000000000000 ) ) ;
#141 = DIRECTION ( 'NONE',  ( -1.000000000000000000, 0.000000000000000000, 0.000000000000000000 ) ) ;
#142 = SURFACE_SIDE_STYLE ('',( #103 ) ) ;
#143 = CYLINDRICAL_SURFACE ( 'NONE', #51, 2.649999999999999023 ) ;
#144 = EDGE_LOOP ( 'NONE', ( #126, #240, #86, #73 ) ) ;
#145 = CIRCLE ( 'NONE', #24, 4.599999999999997868 ) ;
#146 = EDGE_CURVE ( 'NONE', #132, #131, #171, .T. ) ;
#147 = CARTESIAN_POINT ( 'NONE',  ( -0.4523066710532073209, 0.000000000000000000, 0.000000000000000000 ) ) ;
#148 = DIRECTION ( 'NONE',  ( 0.000000000000000000, 0.000000000000000000, -1.000000000000000000 ) ) ;
#149 = EDGE_LOOP ( 'NONE', ( #150, #7, #241, #11 ) ) ;
#150 = ORIENTED_EDGE ( 'NONE', *, *, #76, .T. ) ;
#151 = APPLICATION_CONTEXT ( 'automotive_design' ) ;
#152 = LINE ( 'NONE', #77, #13 ) ;
#153 = LINE ( 'NONE', #196, #250 ) ;
#154 = PRODUCT_DEFINITION ( 'UNKNOWN', '', #25, #32 ) ;
#155 = CARTESIAN_POINT ( 'NONE',  ( -0.1976933289467930621, 0.000000000000000000, -4.599999999999997868 ) ) ;
#156 = FILL_AREA_STYLE_COLOUR ( '', #217 ) ;
#157 = PRODUCT_DEFINITION_SHAPE ( 'NONE', 'NONE',  #154 ) ;
#158 = DIRECTION ( 'NONE',  ( 1.000000000000000000, -0.000000000000000000, -0.000000000000000000 ) ) ;
#159 = DIRECTION ( 'NONE',  ( 0.000000000000000000, 0.000000000000000000, -1.000000000000000000 ) ) ;
#160 = DIRECTION ( 'NONE',  ( 0.000000000000000000, 0.000000000000000000, -1.000000000000000000 ) ) ;
#161 = MANIFOLD_SOLID_BREP ( 'Rotation1', #92 ) ;
#162 = ADVANCED_FACE ( 'NONE', ( #99 ), #229, .T. ) ;
#163 = DIRECTION ( 'NONE',  ( -1.000000000000000000, 0.000000000000000000, 0.000000000000000000 ) ) ;
#164 = APPLICATION_CONTEXT ( 'automotive_design' ) ;
#165 = DIRECTION ( 'NONE',  ( 0.000000000000000000, 0.000000000000000000, -1.000000000000000000 ) ) ;
#166 = CARTESIAN_POINT ( 'NONE',  ( 0.000000000000000000, 0.000000000000000000, 0.000000000000000000 ) ) ;
#167 = VERTEX_POINT ( 'NONE', #198 ) ;
#168 = ORIENTED_EDGE ( 'NONE', *, *, #37, .T. ) ;
#169 = UNCERTAINTY_MEASURE_WITH_UNIT (LENGTH_MEASURE( 1.000000000000000082E-05 ), #124, 'distance_accuracy_value', 'NONE');
#170 = LINE ( 'NONE', #10, #120 ) ;
#171 = LINE ( 'NONE', #59, #174 ) ;
#172 = CYLINDRICAL_SURFACE ( 'NONE', #63, 4.599999999999997868 ) ;
#173 = CARTESIAN_POINT ( 'NONE',  ( 7.206746031746035897, 0.000000000000000000, 0.000000000000000000 ) ) ;
#174 = VECTOR ( 'NONE', #233, 1000.000000000000000 ) ;
#175 = DIRECTION ( 'NONE',  ( 0.000000000000000000, 0.000000000000000000, -1.000000000000000000 ) ) ;
#176 = AXIS2_PLACEMENT_3D ( 'NONE', #237, #238, #178 ) ;
#177 = DIRECTION ( 'NONE',  ( -0.1008641710789474899, 0.000000000000000000, 0.9949002055445343995 ) ) ;
#178 = DIRECTION ( 'NONE',  ( 0.000000000000000000, 0.000000000000000000, -1.000000000000000000 ) ) ;
#179 = DIRECTION ( 'NONE',  ( 1.000000000000000000, -0.000000000000000000, -0.000000000000000000 ) ) ;
#180 = CIRCLE ( 'NONE', #192, 4.599999999999998757 ) ;
#181 = CARTESIAN_POINT ( 'NONE',  ( 0.000000000000000000, 0.000000000000000000, 0.000000000000000000 ) ) ;
#182 = MECHANICAL_DESIGN_GEOMETRIC_PRESENTATION_REPRESENTATION (  '', ( #208 ), #247 ) ;
#183 = ORIENTED_EDGE ( 'NONE', *, *, #16, .F. ) ;
#184 = LINE ( 'NONE', #242, #108 ) ;
#185 = ORIENTED_EDGE ( 'NONE', *, *, #23, .F. ) ;
#186 = PRODUCT_CONTEXT ( 'NONE', #151, 'mechanical' ) ;
#187 = ORIENTED_EDGE ( 'NONE', *, *, #8, .F. ) ;
#188 = ORIENTED_EDGE ( 'NONE', *, *, #201, .T. ) ;
#189 = CARTESIAN_POINT ( 'NONE',  ( -0.6499999999999995781, 0.000000000000000000, 0.000000000000000000 ) ) ;
#190 = LINE ( 'NONE', #79, #219 ) ;
#191 = EDGE_CURVE ( 'NONE', #5, #223, #190, .T. ) ;
#192 = AXIS2_PLACEMENT_3D ( 'NONE', #212, #94, #214 ) ;
#193 = FACE_OUTER_BOUND ( 'NONE', #54, .T. ) ;
#194 = DIRECTION ( 'NONE',  ( 0.000000000000000000, 0.000000000000000000, -1.000000000000000000 ) ) ;
#195 = EDGE_CURVE ( 'NONE', #223, #244, #152, .T. ) ;
#196 = CARTESIAN_POINT ( 'NONE',  ( 7.206746031746035897, 0.000000000000000000, -2.649999999999999023 ) ) ;
#197 =( GEOMETRIC_REPRESENTATION_CONTEXT ( 3 ) GLOBAL_UNCERTAINTY_ASSIGNED_CONTEXT ( ( #169 ) ) GLOBAL_UNIT_ASSIGNED_CONTEXT ( ( #124, #253, #21 ) ) REPRESENTATION_CONTEXT ( 'NONE', 'WORKASPACE' ) );
#198 = CARTESIAN_POINT ( 'NONE',  ( -0.6499999999999995781, 0.000000000000000000, 4.599999999999998757 ) ) ;
#199 = FILL_AREA_STYLE ('',( #215 ) ) ;
#200 = CARTESIAN_POINT ( 'NONE',  ( -0.1976933289467930621, 5.633375276077822140E-16, 4.599999999999997868 ) ) ;
#201 = EDGE_CURVE ( 'NONE', #131, #244, #145, .T. ) ;
#202 = CARTESIAN_POINT ( 'NONE',  ( 7.206746031746035897, 0.000000000000000000, 0.000000000000000000 ) ) ;
#203 = ORIENTED_EDGE ( 'NONE', *, *, #40, .T. ) ;
#204 = DIRECTION ( 'NONE',  ( 0.000000000000000000, 0.000000000000000000, -1.000000000000000000 ) ) ;
#205 = AXIS2_PLACEMENT_3D ( 'NONE', #96, #136, #194 ) ;
#206 = ORIENTED_EDGE ( 'NONE', *, *, #40, .F. ) ;
#207 = ORIENTED_EDGE ( 'NONE', *, *, #191, .T. ) ;
#208 = STYLED_ITEM ( 'NONE', ( #46 ), #62 ) ;
#209 = EDGE_LOOP ( 'NONE', ( #112, #185, #220, #68 ) ) ;
#210 = ADVANCED_FACE ( 'NONE', ( #105 ), #143, .F. ) ;
#211 = DIRECTION ( 'NONE',  ( 1.000000000000000000, -0.000000000000000000, -0.000000000000000000 ) ) ;
#212 = CARTESIAN_POINT ( 'NONE',  ( -0.6499999999999995781, 0.000000000000000000, 0.000000000000000000 ) ) ;
#213 = AXIS2_PLACEMENT_3D ( 'NONE', #78, #80, #117 ) ;
#214 = DIRECTION ( 'NONE',  ( 0.000000000000000000, 0.000000000000000000, -1.000000000000000000 ) ) ;
#215 = FILL_AREA_STYLE_COLOUR ( '', #42 ) ;
#216 = DIRECTION ( 'NONE',  ( -0.1008641710789474899, 1.218401352191157545E-16, -0.9949002055445343995 ) ) ;
#217 = COLOUR_RGB ( '',0.7529411764705882248, 0.7529411764705882248, 0.7529411764705882248 ) ;
#218 = LINE ( 'NONE', #100, #19 ) ;
#219 = VECTOR ( 'NONE', #58, 1000.000000000000000 ) ;
#220 = ORIENTED_EDGE ( 'NONE', *, *, #121, .T. ) ;
#221 = APPLICATION_PROTOCOL_DEFINITION ( 'draft international standard', 'automotive_design', 1998, #164 ) ;
#222 = CARTESIAN_POINT ( 'NONE',  ( -0.4523066710532073209, 3.245314017740484976E-16, 2.649999999999999023 ) ) ;
#223 = VERTEX_POINT ( 'NONE', #138 ) ;
#224 = ORIENTED_EDGE ( 'NONE', *, *, #118, .F. ) ;
#225 = ORIENTED_EDGE ( 'NONE', *, *, #8, .T. ) ;
#226 = AXIS2_PLACEMENT_3D ( 'NONE', #166, #6, #53 ) ;
#227 = EDGE_CURVE ( 'NONE', #129, #223, #93, .T. ) ;
#228 = PRESENTATION_STYLE_ASSIGNMENT (( #231 ) ) ;
#229 = CYLINDRICAL_SURFACE ( 'NONE', #125, 4.599999999999997868 ) ;
#230 = CARTESIAN_POINT ( 'NONE',  ( 7.206746031746035897, 5.633375276077822140E-16, 4.599999999999997868 ) ) ;
#231 = SURFACE_STYLE_USAGE ( .BOTH. , #34 ) ;
#232 = ADVANCED_FACE ( 'NONE', ( #106 ), #2, .F. ) ;
#233 = DIRECTION ( 'NONE',  ( 1.000000000000000000, -0.000000000000000000, -0.000000000000000000 ) ) ;
#234 = ADVANCED_FACE ( 'NONE', ( #84 ), #67, .F. ) ;
#235 =( NAMED_UNIT ( * ) SI_UNIT ( $, .STERADIAN. ) SOLID_ANGLE_UNIT ( ) );
#236 = AXIS2_PLACEMENT_3D ( 'NONE', #181, #83, #159 ) ;
#237 = CARTESIAN_POINT ( 'NONE',  ( 7.206746031746035897, 0.000000000000000000, 0.000000000000000000 ) ) ;
#238 = DIRECTION ( 'NONE',  ( 1.000000000000000000, -0.000000000000000000, -0.000000000000000000 ) ) ;
#239 = DIRECTION ( 'NONE',  ( 0.000000000000000000, 0.000000000000000000, 1.000000000000000000 ) ) ;
#240 = ORIENTED_EDGE ( 'NONE', *, *, #3, .F. ) ;
#241 = ORIENTED_EDGE ( 'NONE', *, *, #201, .F. ) ;
#242 = CARTESIAN_POINT ( 'NONE',  ( -0.6499999999999995781, 5.633375276077823126E-16, -4.599999999999998757 ) ) ;
#243 = EDGE_LOOP ( 'NONE', ( #187, #110, #107, #89 ) ) ;
#244 = VERTEX_POINT ( 'NONE', #200 ) ;
#245 = EDGE_CURVE ( 'NONE', #129, #131, #218, .T. ) ;
#246 = LINE ( 'NONE', #230, #127 ) ;
#247 =( GEOMETRIC_REPRESENTATION_CONTEXT ( 3 ) GLOBAL_UNCERTAINTY_ASSIGNED_CONTEXT ( ( #113 ) ) GLOBAL_UNIT_ASSIGNED_CONTEXT ( ( #123, #66, #235 ) ) REPRESENTATION_CONTEXT ( 'NONE', 'WORKASPACE' ) );
#248 = CIRCLE ( 'NONE', #26, 2.649999999999999023 ) ;
#249 = CARTESIAN_POINT ( 'NONE',  ( 7.206746031746035897, 0.000000000000000000, 0.000000000000000000 ) ) ;
#250 = VECTOR ( 'NONE', #211, 1000.000000000000000 ) ;
#251 = CARTESIAN_POINT ( 'NONE',  ( 0.000000000000000000, 0.000000000000000000, -2.649999999999999023 ) ) ;
#252 = CARTESIAN_POINT ( 'NONE',  ( -0.4523066710532073209, 0.000000000000000000, -2.649999999999999023 ) ) ;
#253 =( NAMED_UNIT ( * ) PLANE_ANGLE_UNIT ( ) SI_UNIT ( $, .RADIAN. ) );
#254 = ADVANCED_FACE ( 'NONE', ( #101 ), #30, .T. ) ;
ENDSEC;
END-ISO-10303-21;
