ISO-10303-21;
HEADER;
FILE_DESCRIPTION (( 'STEP AP214' ),
    '1' );
FILE_NAME ('841.142.200C.STEP',
    '2024-06-20T06:41:24',
    ( '' ),
    ( '' ),
    'SwSTEP 2.0',
    'SolidWorks 2022',
    '' );
FILE_SCHEMA (( 'AUTOMOTIVE_DESIGN' ));
ENDSEC;

DATA;
#1 = VECTOR ( 'NONE', #2, 1000.000000000000000 ) ;
#2 = DIRECTION ( 'NONE',  ( 1.000000000000000000, -0.000000000000000000, -0.000000000000000000 ) ) ;
#3 = CARTESIAN_POINT ( 'NONE',  ( 0.000000000000000000, 0.000000000000000000, 0.000000000000000000 ) ) ;
#4 = FACE_OUTER_BOUND ( 'NONE', #167, .T. ) ;
#5 = ADVANCED_FACE ( 'NONE', ( #123 ), #249, .F. ) ;
#6 = AXIS2_PLACEMENT_3D ( 'NONE', #189, #206, #104 ) ;
#7 = PRODUCT_CONTEXT ( 'NONE', #116, 'mechanical' ) ;
#8 = DIRECTION ( 'NONE',  ( 0.000000000000000000, 0.000000000000000000, 1.000000000000000000 ) ) ;
#9 = CIRCLE ( 'NONE', #246, 2.149999999999999467 ) ;
#10 = DIRECTION ( 'NONE',  ( 1.000000000000000000, -0.000000000000000000, -0.000000000000000000 ) ) ;
#11 = VERTEX_POINT ( 'NONE', #124 ) ;
#12 = VECTOR ( 'NONE', #20, 1000.000000000000000 ) ;
#13 = SHAPE_DEFINITION_REPRESENTATION ( #215, #92 ) ;
#14 = ORIENTED_EDGE ( 'NONE', *, *, #236, .F. ) ;
#15 =( GEOMETRIC_REPRESENTATION_CONTEXT ( 3 ) GLOBAL_UNCERTAINTY_ASSIGNED_CONTEXT ( ( #106 ) ) GLOBAL_UNIT_ASSIGNED_CONTEXT ( ( #23, #221, #100 ) ) REPRESENTATION_CONTEXT ( 'NONE', 'WORKASPACE' ) );
#16 = ORIENTED_EDGE ( 'NONE', *, *, #228, .F. ) ;
#17 = CARTESIAN_POINT ( 'NONE',  ( 0.000000000000000000, 0.000000000000000000, 0.000000000000000000 ) ) ;
#18 = CARTESIAN_POINT ( 'NONE',  ( -0.5499999999999983791, 4.408728476930470165E-16, -3.599999999999998757 ) ) ;
#19 = CARTESIAN_POINT ( 'NONE',  ( -0.1479239146981933817, 0.000000000000000000, 0.000000000000000000 ) ) ;
#20 = DIRECTION ( 'NONE',  ( -0.1014897395041336331, 1.218323440677263481E-16, -0.9948365859654454413 ) ) ;
#21 = SURFACE_STYLE_FILL_AREA ( #60 ) ;
#22 = MECHANICAL_DESIGN_GEOMETRIC_PRESENTATION_REPRESENTATION (  '', ( #213 ), #15 ) ;
#23 =( LENGTH_UNIT ( ) NAMED_UNIT ( * ) SI_UNIT ( .MILLI., .METRE. ) );
#24 = CARTESIAN_POINT ( 'NONE',  ( -0.4020760853018058856, 0.000000000000000000, -2.149999999999999023 ) ) ;
#25 = CARTESIAN_POINT ( 'NONE',  ( 7.206746031746035897, 0.000000000000000000, 0.000000000000000000 ) ) ;
#26 = AXIS2_PLACEMENT_3D ( 'NONE', #94, #62, #95 ) ;
#27 = LINE ( 'NONE', #183, #117 ) ;
#28 = CARTESIAN_POINT ( 'NONE',  ( -0.5499999999999983791, 0.000000000000000000, 0.000000000000000000 ) ) ;
#29 = CIRCLE ( 'NONE', #165, 3.599999999999999201 ) ;
#30 = CARTESIAN_POINT ( 'NONE',  ( 0.000000000000000000, 0.000000000000000000, -2.149999999999999467 ) ) ;
#31 = DIRECTION ( 'NONE',  ( 1.000000000000000000, 0.000000000000000000, 0.000000000000000000 ) ) ;
#32 = ORIENTED_EDGE ( 'NONE', *, *, #224, .F. ) ;
#33 = PRODUCT_DEFINITION ( 'UNKNOWN', '', #251, #126 ) ;
#34 = COLOUR_RGB ( '',0.7529411764705882248, 0.7529411764705882248, 0.7529411764705882248 ) ;
#35 = CARTESIAN_POINT ( 'NONE',  ( 7.206746031746035897, 0.000000000000000000, 0.000000000000000000 ) ) ;
#36 = CARTESIAN_POINT ( 'NONE',  ( 7.206746031746035897, 0.000000000000000000, -3.599999999999999201 ) ) ;
#37 = EDGE_CURVE ( 'NONE', #247, #186, #75, .T. ) ;
#38 = LINE ( 'NONE', #195, #138 ) ;
#39 =( LENGTH_UNIT ( ) NAMED_UNIT ( * ) SI_UNIT ( .MILLI., .METRE. ) );
#40 = DIRECTION ( 'NONE',  ( 1.000000000000000000, -0.000000000000000000, -0.000000000000000000 ) ) ;
#41 = CARTESIAN_POINT ( 'NONE',  ( 7.206746031746035897, 0.000000000000000000, -2.149999999999999023 ) ) ;
#42 = VECTOR ( 'NONE', #173, 1000.000000000000000 ) ;
#43 = CYLINDRICAL_SURFACE ( 'NONE', #141, 3.599999999999999201 ) ;
#44 = CIRCLE ( 'NONE', #240, 3.599999999999999201 ) ;
#45 = VERTEX_POINT ( 'NONE', #30 ) ;
#46 = ORIENTED_EDGE ( 'NONE', *, *, #201, .F. ) ;
#47 = ORIENTED_EDGE ( 'NONE', *, *, #155, .F. ) ;
#48 = ORIENTED_EDGE ( 'NONE', *, *, #236, .T. ) ;
#49 = UNCERTAINTY_MEASURE_WITH_UNIT (LENGTH_MEASURE( 1.000000000000000082E-05 ), #145, 'distance_accuracy_value', 'NONE');
#50 = EDGE_CURVE ( 'NONE', #45, #11, #185, .T. ) ;
#51 = ORIENTED_EDGE ( 'NONE', *, *, #196, .T. ) ;
#52 = AXIS2_PLACEMENT_3D ( 'NONE', #234, #218, #114 ) ;
#53 = DIRECTION ( 'NONE',  ( 1.000000000000000000, -0.000000000000000000, -0.000000000000000000 ) ) ;
#54 = CARTESIAN_POINT ( 'NONE',  ( 7.206746031746035897, 0.000000000000000000, 0.000000000000000000 ) ) ;
#55 = PRODUCT ( '841.142.200C', '841.142.200C', '', ( #7 ) ) ;
#56 = ADVANCED_FACE ( 'NONE', ( #179 ), #133, .F. ) ;
#57 = FACE_OUTER_BOUND ( 'NONE', #69, .T. ) ;
#58 = PRESENTATION_LAYER_ASSIGNMENT (  '', '', ( #213 ) ) ;
#59 = FACE_OUTER_BOUND ( 'NONE', #65, .T. ) ;
#60 = FILL_AREA_STYLE ('',( #61 ) ) ;
#61 = FILL_AREA_STYLE_COLOUR ( '', #34 ) ;
#62 = DIRECTION ( 'NONE',  ( 1.000000000000000000, -0.000000000000000000, -0.000000000000000000 ) ) ;
#63 = APPLICATION_PROTOCOL_DEFINITION ( 'draft international standard', 'automotive_design', 1998, #217 ) ;
#64 = EDGE_LOOP ( 'NONE', ( #127, #125, #230, #225 ) ) ;
#65 = EDGE_LOOP ( 'NONE', ( #243, #150, #229, #46 ) ) ;
#66 = UNCERTAINTY_MEASURE_WITH_UNIT (LENGTH_MEASURE( 1.000000000000000082E-05 ), #39, 'distance_accuracy_value', 'NONE');
#67 = MECHANICAL_DESIGN_GEOMETRIC_PRESENTATION_REPRESENTATION (  '', ( #181 ), #199 ) ;
#68 = ORIENTED_EDGE ( 'NONE', *, *, #50, .F. ) ;
#69 = EDGE_LOOP ( 'NONE', ( #168, #227, #146, #245 ) ) ;
#70 = FILL_AREA_STYLE_COLOUR ( '', #148 ) ;
#71 = AXIS2_PLACEMENT_3D ( 'NONE', #91, #73, #194 ) ;
#72 = DIRECTION ( 'NONE',  ( 1.000000000000000000, -0.000000000000000000, -0.000000000000000000 ) ) ;
#73 = DIRECTION ( 'NONE',  ( -1.000000000000000000, 0.000000000000000000, 0.000000000000000000 ) ) ;
#74 = DIRECTION ( 'NONE',  ( 0.000000000000000000, 0.000000000000000000, -1.000000000000000000 ) ) ;
#75 = CIRCLE ( 'NONE', #6, 2.149999999999999023 ) ;
#76 =( NAMED_UNIT ( * ) PLANE_ANGLE_UNIT ( ) SI_UNIT ( $, .RADIAN. ) );
#77 = ADVANCED_FACE ( 'NONE', ( #93 ), #235, .T. ) ;
#78 = DIRECTION ( 'NONE',  ( 1.000000000000000000, -0.000000000000000000, -0.000000000000000000 ) ) ;
#79 = DIRECTION ( 'NONE',  ( 0.000000000000000000, 0.000000000000000000, -1.000000000000000000 ) ) ;
#80 = DIRECTION ( 'NONE',  ( 0.000000000000000000, 0.000000000000000000, 1.000000000000000000 ) ) ;
#81 = DIRECTION ( 'NONE',  ( -0.1014897395041340772, 0.000000000000000000, 0.9948365859654453303 ) ) ;
#82 = ORIENTED_EDGE ( 'NONE', *, *, #155, .T. ) ;
#83 = CIRCLE ( 'NONE', #122, 3.599999999999998757 ) ;
#84 = EDGE_CURVE ( 'NONE', #247, #128, #131, .T. ) ;
#85 = ORIENTED_EDGE ( 'NONE', *, *, #191, .T. ) ;
#86 = EDGE_LOOP ( 'NONE', ( #16, #172, #48, #32 ) ) ;
#87 = LINE ( 'NONE', #36, #42 ) ;
#88 = SURFACE_STYLE_FILL_AREA ( #214 ) ;
#89 = AXIS2_PLACEMENT_3D ( 'NONE', #96, #120, #80 ) ;
#90 = DIRECTION ( 'NONE',  ( -1.000000000000000000, 0.000000000000000000, 0.000000000000000000 ) ) ;
#91 = CARTESIAN_POINT ( 'NONE',  ( -0.5499999999999983791, 0.000000000000000000, 0.000000000000000000 ) ) ;
#92 = ADVANCED_BREP_SHAPE_REPRESENTATION ( '841.142.200C', ( #164, #102 ), #108 ) ;
#93 = FACE_OUTER_BOUND ( 'NONE', #193, .T. ) ;
#94 = CARTESIAN_POINT ( 'NONE',  ( -0.4020760853018058856, 0.000000000000000000, 0.000000000000000000 ) ) ;
#95 = DIRECTION ( 'NONE',  ( 0.000000000000000000, 0.000000000000000000, -1.000000000000000000 ) ) ;
#96 = CARTESIAN_POINT ( 'NONE',  ( 0.000000000000000000, 0.000000000000000000, 0.000000000000000000 ) ) ;
#97 = PRODUCT_RELATED_PRODUCT_CATEGORY ( 'part', '', ( #55 ) ) ;
#98 = CIRCLE ( 'NONE', #52, 3.599999999999998757 ) ;
#99 = DIRECTION ( 'NONE',  ( -1.000000000000000000, 0.000000000000000000, 0.000000000000000000 ) ) ;
#100 =( NAMED_UNIT ( * ) SI_UNIT ( $, .STERADIAN. ) SOLID_ANGLE_UNIT ( ) );
#101 = ORIENTED_EDGE ( 'NONE', *, *, #143, .F. ) ;
#102 = AXIS2_PLACEMENT_3D ( 'NONE', #166, #187, #31 ) ;
#103 = EDGE_CURVE ( 'NONE', #186, #11, #38, .T. ) ;
#104 = DIRECTION ( 'NONE',  ( 0.000000000000000000, 0.000000000000000000, -1.000000000000000000 ) ) ;
#105 = ORIENTED_EDGE ( 'NONE', *, *, #84, .F. ) ;
#106 = UNCERTAINTY_MEASURE_WITH_UNIT (LENGTH_MEASURE( 1.000000000000000082E-05 ), #23, 'distance_accuracy_value', 'NONE');
#107 = VERTEX_POINT ( 'NONE', #237 ) ;
#108 =( GEOMETRIC_REPRESENTATION_CONTEXT ( 3 ) GLOBAL_UNCERTAINTY_ASSIGNED_CONTEXT ( ( #49 ) ) GLOBAL_UNIT_ASSIGNED_CONTEXT ( ( #145, #184, #222 ) ) REPRESENTATION_CONTEXT ( 'NONE', 'WORKASPACE' ) );
#109 = DIRECTION ( 'NONE',  ( 1.000000000000000000, -0.000000000000000000, -0.000000000000000000 ) ) ;
#110 = CARTESIAN_POINT ( 'NONE',  ( -0.5499999999999983791, 4.408728476930470165E-16, -3.599999999999998757 ) ) ;
#111 = FACE_OUTER_BOUND ( 'NONE', #170, .T. ) ;
#112 = ADVANCED_FACE ( 'NONE', ( #176 ), #190, .F. ) ;
#113 = DIRECTION ( 'NONE',  ( -0.1014897395041340772, 1.218323440677263234E-16, -0.9948365859654453303 ) ) ;
#114 = DIRECTION ( 'NONE',  ( 0.000000000000000000, 0.000000000000000000, -1.000000000000000000 ) ) ;
#115 = AXIS2_PLACEMENT_3D ( 'NONE', #28, #99, #8 ) ;
#116 = APPLICATION_CONTEXT ( 'automotive_design' ) ;
#117 = VECTOR ( 'NONE', #40, 1000.000000000000000 ) ;
#118 = CARTESIAN_POINT ( 'NONE',  ( 0.000000000000000000, 0.000000000000000000, 2.149999999999999467 ) ) ;
#119 = AXIS2_PLACEMENT_3D ( 'NONE', #35, #216, #154 ) ;
#120 = DIRECTION ( 'NONE',  ( -1.000000000000000000, 0.000000000000000000, 0.000000000000000000 ) ) ;
#121 = DIRECTION ( 'NONE',  ( 1.000000000000000000, -0.000000000000000000, -0.000000000000000000 ) ) ;
#122 = AXIS2_PLACEMENT_3D ( 'NONE', #204, #202, #79 ) ;
#123 = FACE_OUTER_BOUND ( 'NONE', #205, .T. ) ;
#124 = CARTESIAN_POINT ( 'NONE',  ( 0.000000000000000000, 2.632990618166808742E-16, 2.149999999999999467 ) ) ;
#125 = ORIENTED_EDGE ( 'NONE', *, *, #84, .T. ) ;
#126 = PRODUCT_DEFINITION_CONTEXT ( 'detailed design', #217, 'design' ) ;
#127 = ORIENTED_EDGE ( 'NONE', *, *, #228, .T. ) ;
#128 = VERTEX_POINT ( 'NONE', #18 ) ;
#129 = VECTOR ( 'NONE', #113, 1000.000000000000227 ) ;
#130 = ADVANCED_FACE ( 'NONE', ( #57 ), #136, .F. ) ;
#131 = LINE ( 'NONE', #110, #12 ) ;
#132 = CYLINDRICAL_SURFACE ( 'NONE', #174, 3.599999999999999201 ) ;
#133 = CYLINDRICAL_SURFACE ( 'NONE', #119, 2.149999999999999023 ) ;
#134 = AXIS2_PLACEMENT_3D ( 'NONE', #17, #90, #250 ) ;
#135 = EDGE_CURVE ( 'NONE', #45, #248, #231, .T. ) ;
#136 = CYLINDRICAL_SURFACE ( 'NONE', #178, 2.149999999999999023 ) ;
#137 = DIRECTION ( 'NONE',  ( 1.000000000000000000, -0.000000000000000000, -0.000000000000000000 ) ) ;
#138 = VECTOR ( 'NONE', #109, 1000.000000000000000 ) ;
#139 = SURFACE_SIDE_STYLE ('',( #21 ) ) ;
#140 = PRESENTATION_STYLE_ASSIGNMENT (( #220 ) ) ;
#141 = AXIS2_PLACEMENT_3D ( 'NONE', #25, #78, #163 ) ;
#142 = CARTESIAN_POINT ( 'NONE',  ( -0.4020760853018058856, 2.632990618166808249E-16, 2.149999999999999023 ) ) ;
#143 = EDGE_CURVE ( 'NONE', #128, #248, #87, .T. ) ;
#144 = PRESENTATION_LAYER_ASSIGNMENT (  '', '', ( #181 ) ) ;
#145 =( LENGTH_UNIT ( ) NAMED_UNIT ( * ) SI_UNIT ( .MILLI., .METRE. ) );
#146 = ORIENTED_EDGE ( 'NONE', *, *, #224, .T. ) ;
#147 = VERTEX_POINT ( 'NONE', #212 ) ;
#148 = COLOUR_RGB ( '',0.7529411764705882248, 0.7529411764705882248, 0.7529411764705882248 ) ;
#149 = ADVANCED_FACE ( 'NONE', ( #111 ), #132, .T. ) ;
#150 = ORIENTED_EDGE ( 'NONE', *, *, #162, .T. ) ;
#151 = ORIENTED_EDGE ( 'NONE', *, *, #182, .T. ) ;
#152 = SURFACE_STYLE_USAGE ( .BOTH. , #254 ) ;
#153 = LINE ( 'NONE', #118, #244 ) ;
#154 = DIRECTION ( 'NONE',  ( 0.000000000000000000, 0.000000000000000000, -1.000000000000000000 ) ) ;
#155 = EDGE_CURVE ( 'NONE', #248, #107, #29, .T. ) ;
#156 = DIRECTION ( 'NONE',  ( 0.000000000000000000, 0.000000000000000000, -1.000000000000000000 ) ) ;
#157 = AXIS2_PLACEMENT_3D ( 'NONE', #188, #10, #197 ) ;
#158 =( NAMED_UNIT ( * ) SI_UNIT ( $, .STERADIAN. ) SOLID_ANGLE_UNIT ( ) );
#159 = APPLICATION_PROTOCOL_DEFINITION ( 'draft international standard', 'automotive_design', 1998, #116 ) ;
#160 = CARTESIAN_POINT ( 'NONE',  ( -0.1479239146981933817, 0.000000000000000000, -3.599999999999999201 ) ) ;
#161 = CARTESIAN_POINT ( 'NONE',  ( -0.5499999999999983791, 0.000000000000000000, 3.599999999999998757 ) ) ;
#162 = EDGE_CURVE ( 'NONE', #147, #128, #98, .T. ) ;
#163 = DIRECTION ( 'NONE',  ( 0.000000000000000000, 0.000000000000000000, -1.000000000000000000 ) ) ;
#164 = MANIFOLD_SOLID_BREP ( 'Rotation1', #169 ) ;
#165 = AXIS2_PLACEMENT_3D ( 'NONE', #19, #233, #156 ) ;
#166 = CARTESIAN_POINT ( 'NONE',  ( 0.000000000000000000, 0.000000000000000000, 0.000000000000000000 ) ) ;
#167 = EDGE_LOOP ( 'NONE', ( #68, #171, #82, #207 ) ) ;
#168 = ORIENTED_EDGE ( 'NONE', *, *, #103, .F. ) ;
#169 = CLOSED_SHELL ( 'NONE', ( #253, #149, #112, #56, #130, #5, #209, #77 ) ) ;
#170 = EDGE_LOOP ( 'NONE', ( #210, #85, #47, #101 ) ) ;
#171 = ORIENTED_EDGE ( 'NONE', *, *, #135, .T. ) ;
#172 = ORIENTED_EDGE ( 'NONE', *, *, #103, .T. ) ;
#173 = DIRECTION ( 'NONE',  ( 1.000000000000000000, -0.000000000000000000, -0.000000000000000000 ) ) ;
#174 = AXIS2_PLACEMENT_3D ( 'NONE', #54, #72, #177 ) ;
#175 = PRESENTATION_STYLE_ASSIGNMENT (( #152 ) ) ;
#176 = FACE_OUTER_BOUND ( 'NONE', #64, .T. ) ;
#177 = DIRECTION ( 'NONE',  ( 0.000000000000000000, 0.000000000000000000, -1.000000000000000000 ) ) ;
#178 = AXIS2_PLACEMENT_3D ( 'NONE', #252, #53, #74 ) ;
#179 = FACE_OUTER_BOUND ( 'NONE', #86, .T. ) ;
#180 = DIRECTION ( 'NONE',  ( -0.1014897395041336331, 0.000000000000000000, 0.9948365859654454413 ) ) ;
#181 = STYLED_ITEM ( 'NONE', ( #175 ), #164 ) ;
#182 = EDGE_CURVE ( 'NONE', #11, #107, #153, .T. ) ;
#183 = CARTESIAN_POINT ( 'NONE',  ( 7.206746031746035897, 4.408728476930470165E-16, 3.599999999999999201 ) ) ;
#184 =( NAMED_UNIT ( * ) PLANE_ANGLE_UNIT ( ) SI_UNIT ( $, .RADIAN. ) );
#185 = CIRCLE ( 'NONE', #157, 2.149999999999999467 ) ;
#186 = VERTEX_POINT ( 'NONE', #142 ) ;
#187 = DIRECTION ( 'NONE',  ( 0.000000000000000000, 0.000000000000000000, 1.000000000000000000 ) ) ;
#188 = CARTESIAN_POINT ( 'NONE',  ( 0.000000000000000000, 0.000000000000000000, 0.000000000000000000 ) ) ;
#189 = CARTESIAN_POINT ( 'NONE',  ( -0.4020760853018058856, 0.000000000000000000, 0.000000000000000000 ) ) ;
#190 = CONICAL_SURFACE ( 'NONE', #71, 3.599999999999998757, 1.469131547868512300 ) ;
#191 = EDGE_CURVE ( 'NONE', #147, #107, #27, .T. ) ;
#192 = ORIENTED_EDGE ( 'NONE', *, *, #242, .F. ) ;
#193 = EDGE_LOOP ( 'NONE', ( #226, #14, #151, #211 ) ) ;
#194 = DIRECTION ( 'NONE',  ( 0.000000000000000000, 0.000000000000000000, 1.000000000000000000 ) ) ;
#195 = CARTESIAN_POINT ( 'NONE',  ( 7.206746031746035897, 2.632990618166808249E-16, 2.149999999999999023 ) ) ;
#196 = EDGE_CURVE ( 'NONE', #186, #147, #219, .T. ) ;
#197 = DIRECTION ( 'NONE',  ( 0.000000000000000000, 0.000000000000000000, -1.000000000000000000 ) ) ;
#198 = CARTESIAN_POINT ( 'NONE',  ( 0.000000000000000000, 2.632990618166808742E-16, -2.149999999999999467 ) ) ;
#199 =( GEOMETRIC_REPRESENTATION_CONTEXT ( 3 ) GLOBAL_UNCERTAINTY_ASSIGNED_CONTEXT ( ( #66 ) ) GLOBAL_UNIT_ASSIGNED_CONTEXT ( ( #39, #76, #158 ) ) REPRESENTATION_CONTEXT ( 'NONE', 'WORKASPACE' ) );
#200 = LINE ( 'NONE', #41, #1 ) ;
#201 = EDGE_CURVE ( 'NONE', #107, #248, #44, .T. ) ;
#202 = DIRECTION ( 'NONE',  ( 1.000000000000000000, -0.000000000000000000, -0.000000000000000000 ) ) ;
#203 = DIRECTION ( 'NONE',  ( 0.000000000000000000, 0.000000000000000000, -1.000000000000000000 ) ) ;
#204 = CARTESIAN_POINT ( 'NONE',  ( -0.5499999999999983791, 0.000000000000000000, 0.000000000000000000 ) ) ;
#205 = EDGE_LOOP ( 'NONE', ( #105, #241, #51, #192 ) ) ;
#206 = DIRECTION ( 'NONE',  ( 1.000000000000000000, -0.000000000000000000, -0.000000000000000000 ) ) ;
#207 = ORIENTED_EDGE ( 'NONE', *, *, #182, .F. ) ;
#208 = VECTOR ( 'NONE', #180, 1000.000000000000000 ) ;
#209 = ADVANCED_FACE ( 'NONE', ( #59 ), #43, .T. ) ;
#210 = ORIENTED_EDGE ( 'NONE', *, *, #242, .T. ) ;
#211 = ORIENTED_EDGE ( 'NONE', *, *, #201, .T. ) ;
#212 = CARTESIAN_POINT ( 'NONE',  ( -0.5499999999999983791, 0.000000000000000000, 3.599999999999998757 ) ) ;
#213 = STYLED_ITEM ( 'NONE', ( #140 ), #92 ) ;
#214 = FILL_AREA_STYLE ('',( #70 ) ) ;
#215 = PRODUCT_DEFINITION_SHAPE ( 'NONE', 'NONE',  #33 ) ;
#216 = DIRECTION ( 'NONE',  ( 1.000000000000000000, -0.000000000000000000, -0.000000000000000000 ) ) ;
#217 = APPLICATION_CONTEXT ( 'automotive_design' ) ;
#218 = DIRECTION ( 'NONE',  ( 1.000000000000000000, -0.000000000000000000, -0.000000000000000000 ) ) ;
#219 = LINE ( 'NONE', #161, #208 ) ;
#220 = SURFACE_STYLE_USAGE ( .BOTH. , #139 ) ;
#221 =( NAMED_UNIT ( * ) PLANE_ANGLE_UNIT ( ) SI_UNIT ( $, .RADIAN. ) );
#222 =( NAMED_UNIT ( * ) SI_UNIT ( $, .STERADIAN. ) SOLID_ANGLE_UNIT ( ) );
#223 = CIRCLE ( 'NONE', #26, 2.149999999999999023 ) ;
#224 = EDGE_CURVE ( 'NONE', #247, #45, #200, .T. ) ;
#225 = ORIENTED_EDGE ( 'NONE', *, *, #196, .F. ) ;
#226 = ORIENTED_EDGE ( 'NONE', *, *, #135, .F. ) ;
#227 = ORIENTED_EDGE ( 'NONE', *, *, #37, .F. ) ;
#228 = EDGE_CURVE ( 'NONE', #186, #247, #223, .T. ) ;
#229 = ORIENTED_EDGE ( 'NONE', *, *, #143, .T. ) ;
#230 = ORIENTED_EDGE ( 'NONE', *, *, #162, .F. ) ;
#231 = LINE ( 'NONE', #198, #129 ) ;
#232 = CONICAL_SURFACE ( 'NONE', #89, 2.149999999999999467, 1.469131547868511856 ) ;
#233 = DIRECTION ( 'NONE',  ( 1.000000000000000000, -0.000000000000000000, -0.000000000000000000 ) ) ;
#234 = CARTESIAN_POINT ( 'NONE',  ( -0.5499999999999983791, 0.000000000000000000, 0.000000000000000000 ) ) ;
#235 = CONICAL_SURFACE ( 'NONE', #134, 2.149999999999999467, 1.469131547868511856 ) ;
#236 = EDGE_CURVE ( 'NONE', #11, #45, #9, .T. ) ;
#237 = CARTESIAN_POINT ( 'NONE',  ( -0.1479239146981933817, 4.408728476930470165E-16, 3.599999999999999201 ) ) ;
#238 = DIRECTION ( 'NONE',  ( 0.000000000000000000, 0.000000000000000000, -1.000000000000000000 ) ) ;
#239 = CARTESIAN_POINT ( 'NONE',  ( -0.1479239146981933817, 0.000000000000000000, 0.000000000000000000 ) ) ;
#240 = AXIS2_PLACEMENT_3D ( 'NONE', #239, #137, #203 ) ;
#241 = ORIENTED_EDGE ( 'NONE', *, *, #37, .T. ) ;
#242 = EDGE_CURVE ( 'NONE', #128, #147, #83, .T. ) ;
#243 = ORIENTED_EDGE ( 'NONE', *, *, #191, .F. ) ;
#244 = VECTOR ( 'NONE', #81, 1000.000000000000227 ) ;
#245 = ORIENTED_EDGE ( 'NONE', *, *, #50, .T. ) ;
#246 = AXIS2_PLACEMENT_3D ( 'NONE', #3, #121, #238 ) ;
#247 = VERTEX_POINT ( 'NONE', #24 ) ;
#248 = VERTEX_POINT ( 'NONE', #160 ) ;
#249 = CONICAL_SURFACE ( 'NONE', #115, 3.599999999999998757, 1.469131547868512300 ) ;
#250 = DIRECTION ( 'NONE',  ( 0.000000000000000000, 0.000000000000000000, 1.000000000000000000 ) ) ;
#251 = PRODUCT_DEFINITION_FORMATION_WITH_SPECIFIED_SOURCE ( 'ANY', '', #55, .NOT_KNOWN. ) ;
#252 = CARTESIAN_POINT ( 'NONE',  ( 7.206746031746035897, 0.000000000000000000, 0.000000000000000000 ) ) ;
#253 = ADVANCED_FACE ( 'NONE', ( #4 ), #232, .T. ) ;
#254 = SURFACE_SIDE_STYLE ('',( #88 ) ) ;
ENDSEC;
END-ISO-10303-21;
