ISO-10303-21;
HEADER;
FILE_DESCRIPTION (( 'STEP AP214' ),
    '1' );
FILE_NAME ('841.142.200.STEP',
    '2024-06-20T06:40:27',
    ( '' ),
    ( '' ),
    'SwSTEP 2.0',
    'SolidWorks 2022',
    '' );
FILE_SCHEMA (( 'AUTOMOTIVE_DESIGN' ));
ENDSEC;

DATA;
#1 = EDGE_CURVE ( 'NONE', #253, #18, #251, .T. ) ;
#2 = DIRECTION ( 'NONE',  ( 1.000000000000000000, -0.000000000000000000, -0.000000000000000000 ) ) ;
#3 = VECTOR ( 'NONE', #57, 1000.000000000000000 ) ;
#4 = VECTOR ( 'NONE', #87, 1000.000000000000227 ) ;
#5 = SURFACE_SIDE_STYLE ('',( #177 ) ) ;
#6 = DIRECTION ( 'NONE',  ( 0.000000000000000000, 0.000000000000000000, 1.000000000000000000 ) ) ;
#7 = CARTESIAN_POINT ( 'NONE',  ( -0.4020760853018058856, 2.632990618166808249E-16, 2.149999999999999023 ) ) ;
#8 = PRODUCT_DEFINITION ( 'UNKNOWN', '', #217, #124 ) ;
#9 = CARTESIAN_POINT ( 'NONE',  ( 7.206746031746035897, 0.000000000000000000, 0.000000000000000000 ) ) ;
#10 =( GEOMETRIC_REPRESENTATION_CONTEXT ( 3 ) GLOBAL_UNCERTAINTY_ASSIGNED_CONTEXT ( ( #194 ) ) GLOBAL_UNIT_ASSIGNED_CONTEXT ( ( #247, #115, #16 ) ) REPRESENTATION_CONTEXT ( 'NONE', 'WORKASPACE' ) );
#11 = DIRECTION ( 'NONE',  ( 1.000000000000000000, -0.000000000000000000, -0.000000000000000000 ) ) ;
#12 = PRODUCT_DEFINITION_SHAPE ( 'NONE', 'NONE',  #8 ) ;
#13 = VERTEX_POINT ( 'NONE', #252 ) ;
#14 = DIRECTION ( 'NONE',  ( 0.000000000000000000, 0.000000000000000000, 1.000000000000000000 ) ) ;
#15 = EDGE_CURVE ( 'NONE', #184, #13, #147, .T. ) ;
#16 =( NAMED_UNIT ( * ) SI_UNIT ( $, .STERADIAN. ) SOLID_ANGLE_UNIT ( ) );
#17 = PRESENTATION_LAYER_ASSIGNMENT (  '', '', ( #74 ) ) ;
#18 = VERTEX_POINT ( 'NONE', #192 ) ;
#19 = EDGE_CURVE ( 'NONE', #184, #114, #176, .T. ) ;
#20 = DIRECTION ( 'NONE',  ( -1.000000000000000000, 0.000000000000000000, 0.000000000000000000 ) ) ;
#21 = DIRECTION ( 'NONE',  ( 0.000000000000000000, 0.000000000000000000, -1.000000000000000000 ) ) ;
#22 = CIRCLE ( 'NONE', #145, 3.599999999999998757 ) ;
#23 = UNCERTAINTY_MEASURE_WITH_UNIT (LENGTH_MEASURE( 1.000000000000000082E-05 ), #116, 'distance_accuracy_value', 'NONE');
#24 = CARTESIAN_POINT ( 'NONE',  ( 0.000000000000000000, 0.000000000000000000, 2.149999999999999467 ) ) ;
#25 = DIRECTION ( 'NONE',  ( 0.000000000000000000, 0.000000000000000000, -1.000000000000000000 ) ) ;
#26 = ADVANCED_FACE ( 'NONE', ( #103 ), #43, .T. ) ;
#27 = ORIENTED_EDGE ( 'NONE', *, *, #224, .F. ) ;
#28 = AXIS2_PLACEMENT_3D ( 'NONE', #133, #78, #153 ) ;
#29 = EDGE_CURVE ( 'NONE', #13, #227, #139, .T. ) ;
#30 =( LENGTH_UNIT ( ) NAMED_UNIT ( * ) SI_UNIT ( .MILLI., .METRE. ) );
#31 = FILL_AREA_STYLE ('',( #135 ) ) ;
#32 = AXIS2_PLACEMENT_3D ( 'NONE', #146, #6, #90 ) ;
#33 = CONICAL_SURFACE ( 'NONE', #144, 3.599999999999998757, 1.469131547868512300 ) ;
#34 = FILL_AREA_STYLE_COLOUR ( '', #95 ) ;
#35 = FACE_OUTER_BOUND ( 'NONE', #140, .T. ) ;
#36 = CARTESIAN_POINT ( 'NONE',  ( -0.1479239146981933817, 0.000000000000000000, 0.000000000000000000 ) ) ;
#37 = CARTESIAN_POINT ( 'NONE',  ( -0.5499999999999983791, 4.408728476930470165E-16, -3.599999999999998757 ) ) ;
#38 =( GEOMETRIC_REPRESENTATION_CONTEXT ( 3 ) GLOBAL_UNCERTAINTY_ASSIGNED_CONTEXT ( ( #23 ) ) GLOBAL_UNIT_ASSIGNED_CONTEXT ( ( #116, #61, #136 ) ) REPRESENTATION_CONTEXT ( 'NONE', 'WORKASPACE' ) );
#39 = AXIS2_PLACEMENT_3D ( 'NONE', #9, #73, #198 ) ;
#40 = DIRECTION ( 'NONE',  ( 1.000000000000000000, -0.000000000000000000, -0.000000000000000000 ) ) ;
#41 = PRODUCT_RELATED_PRODUCT_CATEGORY ( 'part', '', ( #168 ) ) ;
#42 = ORIENTED_EDGE ( 'NONE', *, *, #200, .F. ) ;
#43 = CYLINDRICAL_SURFACE ( 'NONE', #229, 3.599999999999999201 ) ;
#44 = ORIENTED_EDGE ( 'NONE', *, *, #1, .T. ) ;
#45 = CIRCLE ( 'NONE', #137, 2.149999999999999467 ) ;
#46 = VECTOR ( 'NONE', #149, 1000.000000000000000 ) ;
#47 = ADVANCED_FACE ( 'NONE', ( #215 ), #86, .T. ) ;
#48 = DIRECTION ( 'NONE',  ( 1.000000000000000000, -0.000000000000000000, -0.000000000000000000 ) ) ;
#49 = APPLICATION_CONTEXT ( 'automotive_design' ) ;
#50 = CARTESIAN_POINT ( 'NONE',  ( 7.206746031746035897, 2.632990618166808249E-16, 2.149999999999999023 ) ) ;
#51 = ADVANCED_FACE ( 'NONE', ( #160 ), #129, .T. ) ;
#52 = SURFACE_STYLE_USAGE ( .BOTH. , #76 ) ;
#53 = DIRECTION ( 'NONE',  ( 0.000000000000000000, 0.000000000000000000, -1.000000000000000000 ) ) ;
#54 = DIRECTION ( 'NONE',  ( 0.000000000000000000, 0.000000000000000000, -1.000000000000000000 ) ) ;
#55 = MECHANICAL_DESIGN_GEOMETRIC_PRESENTATION_REPRESENTATION (  '', ( #67 ), #38 ) ;
#56 = CARTESIAN_POINT ( 'NONE',  ( -0.1479239146981933817, 4.408728476930470165E-16, 3.599999999999999201 ) ) ;
#57 = DIRECTION ( 'NONE',  ( 1.000000000000000000, -0.000000000000000000, -0.000000000000000000 ) ) ;
#58 = DIRECTION ( 'NONE',  ( 1.000000000000000000, -0.000000000000000000, -0.000000000000000000 ) ) ;
#59 = EDGE_LOOP ( 'NONE', ( #27, #249, #228, #213 ) ) ;
#60 = CARTESIAN_POINT ( 'NONE',  ( -0.5499999999999983791, 0.000000000000000000, 0.000000000000000000 ) ) ;
#61 =( NAMED_UNIT ( * ) PLANE_ANGLE_UNIT ( ) SI_UNIT ( $, .RADIAN. ) );
#62 = EDGE_LOOP ( 'NONE', ( #241, #254, #134, #119 ) ) ;
#63 = SURFACE_STYLE_USAGE ( .BOTH. , #5 ) ;
#64 = EDGE_CURVE ( 'NONE', #227, #70, #154, .T. ) ;
#65 = ORIENTED_EDGE ( 'NONE', *, *, #64, .F. ) ;
#66 = ORIENTED_EDGE ( 'NONE', *, *, #64, .T. ) ;
#67 = STYLED_ITEM ( 'NONE', ( #169 ), #244 ) ;
#68 = AXIS2_PLACEMENT_3D ( 'NONE', #113, #167, #185 ) ;
#69 = FILL_AREA_STYLE ('',( #34 ) ) ;
#70 = VERTEX_POINT ( 'NONE', #163 ) ;
#71 = ADVANCED_FACE ( 'NONE', ( #93 ), #131, .F. ) ;
#72 = CARTESIAN_POINT ( 'NONE',  ( 0.000000000000000000, 0.000000000000000000, 0.000000000000000000 ) ) ;
#73 = DIRECTION ( 'NONE',  ( 1.000000000000000000, -0.000000000000000000, -0.000000000000000000 ) ) ;
#74 = STYLED_ITEM ( 'NONE', ( #181 ), #202 ) ;
#75 = FACE_OUTER_BOUND ( 'NONE', #158, .T. ) ;
#76 = SURFACE_SIDE_STYLE ('',( #239 ) ) ;
#77 = CARTESIAN_POINT ( 'NONE',  ( -0.5499999999999983791, 0.000000000000000000, 3.599999999999998757 ) ) ;
#78 = DIRECTION ( 'NONE',  ( 1.000000000000000000, -0.000000000000000000, -0.000000000000000000 ) ) ;
#79 = CONICAL_SURFACE ( 'NONE', #221, 3.599999999999998757, 1.469131547868512300 ) ;
#80 = VECTOR ( 'NONE', #58, 1000.000000000000000 ) ;
#81 = ORIENTED_EDGE ( 'NONE', *, *, #159, .T. ) ;
#82 = VECTOR ( 'NONE', #225, 1000.000000000000000 ) ;
#83 = ORIENTED_EDGE ( 'NONE', *, *, #200, .T. ) ;
#84 = EDGE_CURVE ( 'NONE', #114, #184, #222, .T. ) ;
#85 = ORIENTED_EDGE ( 'NONE', *, *, #226, .T. ) ;
#86 = CYLINDRICAL_SURFACE ( 'NONE', #171, 3.599999999999999201 ) ;
#87 = DIRECTION ( 'NONE',  ( -0.1014897395041340772, 0.000000000000000000, 0.9948365859654453303 ) ) ;
#88 = AXIS2_PLACEMENT_3D ( 'NONE', #127, #196, #170 ) ;
#89 = CARTESIAN_POINT ( 'NONE',  ( 7.206746031746035897, 0.000000000000000000, -3.599999999999999201 ) ) ;
#90 = DIRECTION ( 'NONE',  ( 1.000000000000000000, 0.000000000000000000, 0.000000000000000000 ) ) ;
#91 = DIRECTION ( 'NONE',  ( 1.000000000000000000, -0.000000000000000000, -0.000000000000000000 ) ) ;
#92 = DIRECTION ( 'NONE',  ( 0.000000000000000000, 0.000000000000000000, -1.000000000000000000 ) ) ;
#93 = FACE_OUTER_BOUND ( 'NONE', #62, .T. ) ;
#94 = DIRECTION ( 'NONE',  ( 0.000000000000000000, 0.000000000000000000, 1.000000000000000000 ) ) ;
#95 = COLOUR_RGB ( '',0.7529411764705882248, 0.7529411764705882248, 0.7529411764705882248 ) ;
#96 = AXIS2_PLACEMENT_3D ( 'NONE', #156, #48, #120 ) ;
#97 = EDGE_CURVE ( 'NONE', #13, #230, #214, .T. ) ;
#98 = DIRECTION ( 'NONE',  ( 0.000000000000000000, 0.000000000000000000, 1.000000000000000000 ) ) ;
#99 = DIRECTION ( 'NONE',  ( 1.000000000000000000, -0.000000000000000000, -0.000000000000000000 ) ) ;
#100 = EDGE_CURVE ( 'NONE', #18, #253, #22, .T. ) ;
#101 = EDGE_LOOP ( 'NONE', ( #44, #83, #208, #205 ) ) ;
#102 = VECTOR ( 'NONE', #164, 1000.000000000000227 ) ;
#103 = FACE_OUTER_BOUND ( 'NONE', #212, .T. ) ;
#104 = ORIENTED_EDGE ( 'NONE', *, *, #1, .F. ) ;
#105 = APPLICATION_PROTOCOL_DEFINITION ( 'draft international standard', 'automotive_design', 1998, #190 ) ;
#106 = CARTESIAN_POINT ( 'NONE',  ( 0.000000000000000000, 0.000000000000000000, 0.000000000000000000 ) ) ;
#107 = CONICAL_SURFACE ( 'NONE', #246, 2.149999999999999467, 1.469131547868511856 ) ;
#108 = DIRECTION ( 'NONE',  ( -1.000000000000000000, 0.000000000000000000, 0.000000000000000000 ) ) ;
#109 = CARTESIAN_POINT ( 'NONE',  ( 0.000000000000000000, 0.000000000000000000, 0.000000000000000000 ) ) ;
#110 = DIRECTION ( 'NONE',  ( 0.000000000000000000, 0.000000000000000000, -1.000000000000000000 ) ) ;
#111 = AXIS2_PLACEMENT_3D ( 'NONE', #242, #40, #240 ) ;
#112 = ORIENTED_EDGE ( 'NONE', *, *, #100, .T. ) ;
#113 = CARTESIAN_POINT ( 'NONE',  ( -0.4020760853018058856, 0.000000000000000000, 0.000000000000000000 ) ) ;
#114 = VERTEX_POINT ( 'NONE', #234 ) ;
#115 =( NAMED_UNIT ( * ) PLANE_ANGLE_UNIT ( ) SI_UNIT ( $, .RADIAN. ) );
#116 =( LENGTH_UNIT ( ) NAMED_UNIT ( * ) SI_UNIT ( .MILLI., .METRE. ) );
#117 = FACE_OUTER_BOUND ( 'NONE', #152, .T. ) ;
#118 = ORIENTED_EDGE ( 'NONE', *, *, #84, .F. ) ;
#119 = ORIENTED_EDGE ( 'NONE', *, *, #197, .F. ) ;
#120 = DIRECTION ( 'NONE',  ( 0.000000000000000000, 0.000000000000000000, -1.000000000000000000 ) ) ;
#121 = VECTOR ( 'NONE', #165, 1000.000000000000000 ) ;
#122 = CARTESIAN_POINT ( 'NONE',  ( -0.4020760853018058856, 0.000000000000000000, 0.000000000000000000 ) ) ;
#123 = CARTESIAN_POINT ( 'NONE',  ( 7.206746031746035897, 0.000000000000000000, 0.000000000000000000 ) ) ;
#124 = PRODUCT_DEFINITION_CONTEXT ( 'detailed design', #190, 'design' ) ;
#125 = EDGE_CURVE ( 'NONE', #230, #70, #128, .T. ) ;
#126 = SHAPE_DEFINITION_REPRESENTATION ( #12, #202 ) ;
#127 = CARTESIAN_POINT ( 'NONE',  ( 0.000000000000000000, 0.000000000000000000, 0.000000000000000000 ) ) ;
#128 = LINE ( 'NONE', #180, #102 ) ;
#129 = CONICAL_SURFACE ( 'NONE', #88, 2.149999999999999467, 1.469131547868511856 ) ;
#130 =( NAMED_UNIT ( * ) PLANE_ANGLE_UNIT ( ) SI_UNIT ( $, .RADIAN. ) );
#131 = CYLINDRICAL_SURFACE ( 'NONE', #39, 2.149999999999999023 ) ;
#132 = DIRECTION ( 'NONE',  ( 0.000000000000000000, 0.000000000000000000, -1.000000000000000000 ) ) ;
#133 = CARTESIAN_POINT ( 'NONE',  ( 7.206746031746035897, 0.000000000000000000, 0.000000000000000000 ) ) ;
#134 = ORIENTED_EDGE ( 'NONE', *, *, #97, .T. ) ;
#135 = FILL_AREA_STYLE_COLOUR ( '', #187 ) ;
#136 =( NAMED_UNIT ( * ) SI_UNIT ( $, .STERADIAN. ) SOLID_ANGLE_UNIT ( ) );
#137 = AXIS2_PLACEMENT_3D ( 'NONE', #109, #182, #92 ) ;
#138 = ORIENTED_EDGE ( 'NONE', *, *, #15, .F. ) ;
#139 = LINE ( 'NONE', #24, #4 ) ;
#140 = EDGE_LOOP ( 'NONE', ( #175, #189, #191, #66 ) ) ;
#141 = VECTOR ( 'NONE', #216, 1000.000000000000000 ) ;
#142 = DIRECTION ( 'NONE',  ( 1.000000000000000000, -0.000000000000000000, -0.000000000000000000 ) ) ;
#143 = EDGE_CURVE ( 'NONE', #253, #70, #199, .T. ) ;
#144 = AXIS2_PLACEMENT_3D ( 'NONE', #179, #150, #94 ) ;
#145 = AXIS2_PLACEMENT_3D ( 'NONE', #243, #91, #132 ) ;
#146 = CARTESIAN_POINT ( 'NONE',  ( 0.000000000000000000, 0.000000000000000000, 0.000000000000000000 ) ) ;
#147 = LINE ( 'NONE', #50, #82 ) ;
#148 = FACE_OUTER_BOUND ( 'NONE', #193, .T. ) ;
#149 = DIRECTION ( 'NONE',  ( 1.000000000000000000, -0.000000000000000000, -0.000000000000000000 ) ) ;
#150 = DIRECTION ( 'NONE',  ( -1.000000000000000000, 0.000000000000000000, 0.000000000000000000 ) ) ;
#151 = LINE ( 'NONE', #37, #141 ) ;
#152 = EDGE_LOOP ( 'NONE', ( #188, #172, #85, #104 ) ) ;
#153 = DIRECTION ( 'NONE',  ( 0.000000000000000000, 0.000000000000000000, -1.000000000000000000 ) ) ;
#154 = CIRCLE ( 'NONE', #111, 3.599999999999999201 ) ;
#155 = CIRCLE ( 'NONE', #238, 3.599999999999999201 ) ;
#156 = CARTESIAN_POINT ( 'NONE',  ( -0.5499999999999983791, 0.000000000000000000, 0.000000000000000000 ) ) ;
#157 = ORIENTED_EDGE ( 'NONE', *, *, #100, .F. ) ;
#158 = EDGE_LOOP ( 'NONE', ( #138, #118, #162, #210 ) ) ;
#159 = EDGE_CURVE ( 'NONE', #114, #253, #151, .T. ) ;
#160 = FACE_OUTER_BOUND ( 'NONE', #59, .T. ) ;
#161 = UNCERTAINTY_MEASURE_WITH_UNIT (LENGTH_MEASURE( 1.000000000000000082E-05 ), #30, 'distance_accuracy_value', 'NONE');
#162 = ORIENTED_EDGE ( 'NONE', *, *, #197, .T. ) ;
#163 = CARTESIAN_POINT ( 'NONE',  ( -0.1479239146981933817, 0.000000000000000000, -3.599999999999999201 ) ) ;
#164 = DIRECTION ( 'NONE',  ( -0.1014897395041340772, 1.218323440677263234E-16, -0.9948365859654453303 ) ) ;
#165 = DIRECTION ( 'NONE',  ( -0.1014897395041336331, 0.000000000000000000, 0.9948365859654454413 ) ) ;
#166 = LINE ( 'NONE', #77, #121 ) ;
#167 = DIRECTION ( 'NONE',  ( 1.000000000000000000, -0.000000000000000000, -0.000000000000000000 ) ) ;
#168 = PRODUCT ( '841.142.200', '841.142.200', '', ( #235 ) ) ;
#169 = PRESENTATION_STYLE_ASSIGNMENT (( #63 ) ) ;
#170 = DIRECTION ( 'NONE',  ( 0.000000000000000000, 0.000000000000000000, 1.000000000000000000 ) ) ;
#171 = AXIS2_PLACEMENT_3D ( 'NONE', #233, #99, #53 ) ;
#172 = ORIENTED_EDGE ( 'NONE', *, *, #84, .T. ) ;
#173 = ORIENTED_EDGE ( 'NONE', *, *, #143, .T. ) ;
#174 = ORIENTED_EDGE ( 'NONE', *, *, #19, .T. ) ;
#175 = ORIENTED_EDGE ( 'NONE', *, *, #125, .F. ) ;
#176 = CIRCLE ( 'NONE', #203, 2.149999999999999023 ) ;
#177 = SURFACE_STYLE_FILL_AREA ( #31 ) ;
#178 = ADVANCED_FACE ( 'NONE', ( #35 ), #107, .T. ) ;
#179 = CARTESIAN_POINT ( 'NONE',  ( -0.5499999999999983791, 0.000000000000000000, 0.000000000000000000 ) ) ;
#180 = CARTESIAN_POINT ( 'NONE',  ( 0.000000000000000000, 2.632990618166808742E-16, -2.149999999999999467 ) ) ;
#181 = PRESENTATION_STYLE_ASSIGNMENT (( #52 ) ) ;
#182 = DIRECTION ( 'NONE',  ( 1.000000000000000000, -0.000000000000000000, -0.000000000000000000 ) ) ;
#183 = ADVANCED_FACE ( 'NONE', ( #148 ), #33, .F. ) ;
#184 = VERTEX_POINT ( 'NONE', #7 ) ;
#185 = DIRECTION ( 'NONE',  ( 0.000000000000000000, 0.000000000000000000, -1.000000000000000000 ) ) ;
#186 = CARTESIAN_POINT ( 'NONE',  ( -0.5499999999999983791, 4.408728476930470165E-16, -3.599999999999998757 ) ) ;
#187 = COLOUR_RGB ( '',0.7529411764705882248, 0.7529411764705882248, 0.7529411764705882248 ) ;
#188 = ORIENTED_EDGE ( 'NONE', *, *, #159, .F. ) ;
#189 = ORIENTED_EDGE ( 'NONE', *, *, #97, .F. ) ;
#190 = APPLICATION_CONTEXT ( 'automotive_design' ) ;
#191 = ORIENTED_EDGE ( 'NONE', *, *, #29, .T. ) ;
#192 = CARTESIAN_POINT ( 'NONE',  ( -0.5499999999999983791, 0.000000000000000000, 3.599999999999998757 ) ) ;
#193 = EDGE_LOOP ( 'NONE', ( #174, #81, #157, #207 ) ) ;
#194 = UNCERTAINTY_MEASURE_WITH_UNIT (LENGTH_MEASURE( 1.000000000000000082E-05 ), #247, 'distance_accuracy_value', 'NONE');
#195 = PRESENTATION_LAYER_ASSIGNMENT (  '', '', ( #67 ) ) ;
#196 = DIRECTION ( 'NONE',  ( -1.000000000000000000, 0.000000000000000000, 0.000000000000000000 ) ) ;
#197 = EDGE_CURVE ( 'NONE', #114, #230, #223, .T. ) ;
#198 = DIRECTION ( 'NONE',  ( 0.000000000000000000, 0.000000000000000000, -1.000000000000000000 ) ) ;
#199 = LINE ( 'NONE', #89, #46 ) ;
#200 = EDGE_CURVE ( 'NONE', #18, #227, #236, .T. ) ;
#201 = CARTESIAN_POINT ( 'NONE',  ( 7.206746031746035897, 0.000000000000000000, -2.149999999999999023 ) ) ;
#202 = ADVANCED_BREP_SHAPE_REPRESENTATION ( '841.142.200', ( #244, #32 ), #10 ) ;
#203 = AXIS2_PLACEMENT_3D ( 'NONE', #122, #142, #25 ) ;
#204 = CARTESIAN_POINT ( 'NONE',  ( 0.000000000000000000, 0.000000000000000000, -2.149999999999999467 ) ) ;
#205 = ORIENTED_EDGE ( 'NONE', *, *, #143, .F. ) ;
#206 = APPLICATION_PROTOCOL_DEFINITION ( 'draft international standard', 'automotive_design', 1998, #49 ) ;
#207 = ORIENTED_EDGE ( 'NONE', *, *, #226, .F. ) ;
#208 = ORIENTED_EDGE ( 'NONE', *, *, #209, .F. ) ;
#209 = EDGE_CURVE ( 'NONE', #70, #227, #155, .T. ) ;
#210 = ORIENTED_EDGE ( 'NONE', *, *, #224, .T. ) ;
#211 = CLOSED_SHELL ( 'NONE', ( #51, #47, #183, #71, #237, #248, #26, #178 ) ) ;
#212 = EDGE_LOOP ( 'NONE', ( #42, #112, #173, #65 ) ) ;
#213 = ORIENTED_EDGE ( 'NONE', *, *, #29, .F. ) ;
#214 = CIRCLE ( 'NONE', #231, 2.149999999999999467 ) ;
#215 = FACE_OUTER_BOUND ( 'NONE', #101, .T. ) ;
#216 = DIRECTION ( 'NONE',  ( -0.1014897395041336331, 1.218323440677263481E-16, -0.9948365859654454413 ) ) ;
#217 = PRODUCT_DEFINITION_FORMATION_WITH_SPECIFIED_SOURCE ( 'ANY', '', #168, .NOT_KNOWN. ) ;
#218 = DIRECTION ( 'NONE',  ( 1.000000000000000000, -0.000000000000000000, -0.000000000000000000 ) ) ;
#219 = CARTESIAN_POINT ( 'NONE',  ( 7.206746031746035897, 4.408728476930470165E-16, 3.599999999999999201 ) ) ;
#220 = CYLINDRICAL_SURFACE ( 'NONE', #28, 2.149999999999999023 ) ;
#221 = AXIS2_PLACEMENT_3D ( 'NONE', #60, #20, #98 ) ;
#222 = CIRCLE ( 'NONE', #68, 2.149999999999999023 ) ;
#223 = LINE ( 'NONE', #201, #80 ) ;
#224 = EDGE_CURVE ( 'NONE', #230, #13, #45, .T. ) ;
#225 = DIRECTION ( 'NONE',  ( 1.000000000000000000, -0.000000000000000000, -0.000000000000000000 ) ) ;
#226 = EDGE_CURVE ( 'NONE', #184, #18, #166, .T. ) ;
#227 = VERTEX_POINT ( 'NONE', #56 ) ;
#228 = ORIENTED_EDGE ( 'NONE', *, *, #209, .T. ) ;
#229 = AXIS2_PLACEMENT_3D ( 'NONE', #123, #2, #21 ) ;
#230 = VERTEX_POINT ( 'NONE', #204 ) ;
#231 = AXIS2_PLACEMENT_3D ( 'NONE', #106, #218, #54 ) ;
#232 =( NAMED_UNIT ( * ) SI_UNIT ( $, .STERADIAN. ) SOLID_ANGLE_UNIT ( ) );
#233 = CARTESIAN_POINT ( 'NONE',  ( 7.206746031746035897, 0.000000000000000000, 0.000000000000000000 ) ) ;
#234 = CARTESIAN_POINT ( 'NONE',  ( -0.4020760853018058856, 0.000000000000000000, -2.149999999999999023 ) ) ;
#235 = PRODUCT_CONTEXT ( 'NONE', #49, 'mechanical' ) ;
#236 = LINE ( 'NONE', #219, #3 ) ;
#237 = ADVANCED_FACE ( 'NONE', ( #75 ), #220, .F. ) ;
#238 = AXIS2_PLACEMENT_3D ( 'NONE', #36, #11, #110 ) ;
#239 = SURFACE_STYLE_FILL_AREA ( #69 ) ;
#240 = DIRECTION ( 'NONE',  ( 0.000000000000000000, 0.000000000000000000, -1.000000000000000000 ) ) ;
#241 = ORIENTED_EDGE ( 'NONE', *, *, #19, .F. ) ;
#242 = CARTESIAN_POINT ( 'NONE',  ( -0.1479239146981933817, 0.000000000000000000, 0.000000000000000000 ) ) ;
#243 = CARTESIAN_POINT ( 'NONE',  ( -0.5499999999999983791, 0.000000000000000000, 0.000000000000000000 ) ) ;
#244 = MANIFOLD_SOLID_BREP ( 'Rotation1', #211 ) ;
#245 = MECHANICAL_DESIGN_GEOMETRIC_PRESENTATION_REPRESENTATION (  '', ( #74 ), #250 ) ;
#246 = AXIS2_PLACEMENT_3D ( 'NONE', #72, #108, #14 ) ;
#247 =( LENGTH_UNIT ( ) NAMED_UNIT ( * ) SI_UNIT ( .MILLI., .METRE. ) );
#248 = ADVANCED_FACE ( 'NONE', ( #117 ), #79, .F. ) ;
#249 = ORIENTED_EDGE ( 'NONE', *, *, #125, .T. ) ;
#250 =( GEOMETRIC_REPRESENTATION_CONTEXT ( 3 ) GLOBAL_UNCERTAINTY_ASSIGNED_CONTEXT ( ( #161 ) ) GLOBAL_UNIT_ASSIGNED_CONTEXT ( ( #30, #130, #232 ) ) REPRESENTATION_CONTEXT ( 'NONE', 'WORKASPACE' ) );
#251 = CIRCLE ( 'NONE', #96, 3.599999999999998757 ) ;
#252 = CARTESIAN_POINT ( 'NONE',  ( 0.000000000000000000, 2.632990618166808742E-16, 2.149999999999999467 ) ) ;
#253 = VERTEX_POINT ( 'NONE', #186 ) ;
#254 = ORIENTED_EDGE ( 'NONE', *, *, #15, .T. ) ;
ENDSEC;
END-ISO-10303-21;
