ISO-10303-21;
HEADER;
FILE_DESCRIPTION (( 'STEP AP214' ),
    '1' );
FILE_NAME ('U10.B14.002.043.STEP',
    '2020-10-01T11:34:31',
    ( '' ),
    ( '' ),
    'SwSTEP 2.0',
    'SolidWorks 2017',
    '' );
FILE_SCHEMA (( 'AUTOMOTIVE_DESIGN' ));
ENDSEC;

DATA;
#1 = DIRECTION ( 'NONE',  ( 0.2588190451025145200, 0.0000000000000000000, -0.9659258262890699800 ) ) ;
#2 = VERTEX_POINT ( 'NONE', #180 ) ;
#3 = CARTESIAN_POINT ( 'NONE',  ( 72.08384591282181500, -5.450595079754986500, -3.235569380985309400 ) ) ;
#4 = ORIENTED_EDGE ( 'NONE', *, *, #36, .T. ) ;
#5 = CARTESIAN_POINT ( 'NONE',  ( 72.52055659647801600, -3.722420451203137600, -5.660929007420795000 ) ) ;
#6 = CIRCLE ( 'NONE', #281, 4.900000000000000400 ) ;
#7 = EDGE_CURVE ( 'NONE', #65, #65, #139, .T. ) ;
#8 = CARTESIAN_POINT ( 'NONE',  ( 71.61248450142045400, -5.812767653548434900, -0.7993509450866390600 ) ) ;
#9 = DIRECTION ( 'NONE',  ( -0.4999999999999998900, -0.7071067811865464600, 0.5000000000000016700 ) ) ;
#10 =( NAMED_UNIT ( * ) SI_UNIT ( $, .STERADIAN. ) SOLID_ANGLE_UNIT ( ) );
#11 =( NAMED_UNIT ( * ) PLANE_ANGLE_UNIT ( ) SI_UNIT ( $, .RADIAN. ) );
#12 = PRESENTATION_STYLE_ASSIGNMENT (( #44 ) ) ;
#13 = EDGE_LOOP ( 'NONE', ( #122 ) ) ;
#14 = LINE ( 'NONE', #56, #25 ) ;
#15 = CARTESIAN_POINT ( 'NONE',  ( 76.04379675474174900, -6.929668634045187400, -3.431400906333877300 ) ) ;
#16 = FACE_OUTER_BOUND ( 'NONE', #13, .T. ) ;
#17 =( NAMED_UNIT ( * ) SI_UNIT ( $, .STERADIAN. ) SOLID_ANGLE_UNIT ( ) );
#18 = CARTESIAN_POINT ( 'NONE',  ( 0.0000000000000000000, 0.0000000000000000000, 4.000000000000000000 ) ) ;
#19 = ADVANCED_FACE ( 'NONE', ( #107 ), #335, .F. ) ;
#20 = DIRECTION ( 'NONE',  ( 1.000000000000000000, -0.0000000000000000000, -0.0000000000000000000 ) ) ;
#21 =( GEOMETRIC_REPRESENTATION_CONTEXT ( 3 ) GLOBAL_UNCERTAINTY_ASSIGNED_CONTEXT ( ( #250 ) ) GLOBAL_UNIT_ASSIGNED_CONTEXT ( ( #258, #283, #310 ) ) REPRESENTATION_CONTEXT ( 'NONE', 'WORKASPACE' ) );
#22 = CARTESIAN_POINT ( 'NONE',  ( -79.66162912480135100, 0.0000000000000000000, 0.0000000000000000000 ) ) ;
#23 = DIRECTION ( 'NONE',  ( 1.000000000000000000, 0.0000000000000000000, 0.0000000000000000000 ) ) ;
#24 = DIRECTION ( 'NONE',  ( -1.000000000000000000, -0.0000000000000000000, -0.0000000000000000000 ) ) ;
#25 = VECTOR ( 'NONE', #190, 1000.000000000000000 ) ;
#26 = LINE ( 'NONE', #178, #189 ) ;
#27 = CARTESIAN_POINT ( 'NONE',  ( 71.01420860532712700, 4.861121925719609200, 2.020244010927459300 ) ) ;
#28 = CARTESIAN_POINT ( 'NONE',  ( 72.32579882500917300, -4.745111495406929300, -4.559305931503209800 ) ) ;
#29 = CARTESIAN_POINT ( 'NONE',  ( 70.60967036382368200, 3.093543971804394200, 3.756096202047396000 ) ) ;
#30 = CARTESIAN_POINT ( 'NONE',  ( 72.49197462348566000, -3.911134434968824200, -5.497170296166126800 ) ) ;
#31 = CONICAL_SURFACE ( 'NONE', #260, 4.500000000000000000, 0.01103403493916231500 ) ;
#32 = CARTESIAN_POINT ( 'NONE',  ( 72.57322304938928400, -3.323514302115221100, -5.964287055619825800 ) ) ;
#33 = UNCERTAINTY_MEASURE_WITH_UNIT (LENGTH_MEASURE( 1.000000000000000100E-005 ), #336, 'distance_accuracy_value', 'NONE');
#34 = CARTESIAN_POINT ( 'NONE',  ( 70.25000000000000000, 4.449295413234403400, 0.6736247662989463000 ) ) ;
#35 = SHAPE_DEFINITION_REPRESENTATION ( #112, #187 ) ;
#36 = EDGE_CURVE ( 'NONE', #325, #37, #284, .T. ) ;
#37 = VERTEX_POINT ( 'NONE', #262 ) ;
#38 =( BOUNDED_CURVE ( )  B_SPLINE_CURVE ( 3, ( #231, #98, #156, #207 ),
 .UNSPECIFIED., .F., .F. ) 
 B_SPLINE_CURVE_WITH_KNOTS ( ( 4, 4 ),
 ( 1.618163272546581500, 1.943898365775945700 ),
 .UNSPECIFIED. ) 
 CURVE ( )  GEOMETRIC_REPRESENTATION_ITEM ( )  RATIONAL_B_SPLINE_CURVE ( ( 1.000000000000000000, 0.9911775818150540000, 0.9911775818150540000, 1.000000000000000000 ) ) 
 REPRESENTATION_ITEM ( '' )  );
#39 = FACE_BOUND ( 'NONE', #238, .T. ) ;
#40 = PRODUCT_DEFINITION_FORMATION_WITH_SPECIFIED_SOURCE ( 'ANY', '', #132, .NOT_KNOWN. ) ;
#41 = CARTESIAN_POINT ( 'NONE',  ( 72.74726061660277300, -0.5027997645518249600, -6.983739953029775900 ) ) ;
#42 = ORIENTED_EDGE ( 'NONE', *, *, #304, .F. ) ;
#43 = SURFACE_STYLE_USAGE ( .BOTH. , #92 ) ;
#44 = SURFACE_STYLE_USAGE ( .BOTH. , #202 ) ;
#45 = ORIENTED_EDGE ( 'NONE', *, *, #7, .F. ) ;
#46 = EDGE_CURVE ( 'NONE', #150, #2, #26, .T. ) ;
#47 = DIRECTION ( 'NONE',  ( 0.0000000000000000000, 0.0000000000000000000, 1.000000000000000000 ) ) ;
#48 = CARTESIAN_POINT ( 'NONE',  ( 69.50000000000000000, 0.0000000000000000000, -1.180018397163688600 ) ) ;
#49 = DIRECTION ( 'NONE',  ( 0.0000000000000000000, 0.0000000000000000000, 1.000000000000000000 ) ) ;
#50 = CARTESIAN_POINT ( 'NONE',  ( 70.80931457505079200, 0.0000000000000000000, -5.059314575050740000 ) ) ;
#51 = EDGE_LOOP ( 'NONE', ( #84, #259 ) ) ;
#52 = AXIS2_PLACEMENT_3D ( 'NONE', #344, #125, #312 ) ;
#53 = ADVANCED_FACE ( 'NONE', ( #249, #39 ), #275, .T. ) ;
#54 = DIRECTION ( 'NONE',  ( 0.0000000000000000000, 0.0000000000000000000, 1.000000000000000000 ) ) ;
#55 = EDGE_LOOP ( 'NONE', ( #300, #317, #184, #111 ) ) ;
#56 = CARTESIAN_POINT ( 'NONE',  ( 34.43431457505063500, 0.0000000000000000000, -41.43431457505076300 ) ) ;
#57 = VERTEX_POINT ( 'NONE', #128 ) ;
#58 = CARTESIAN_POINT ( 'NONE',  ( 70.75754037568803800, -3.931008895871669100, 3.140375260935675900 ) ) ;
#59 = CARTESIAN_POINT ( 'NONE',  ( 72.59742783228463700, -3.112067535892705900, -6.104590287647037700 ) ) ;
#60 = EDGE_CURVE ( 'NONE', #325, #135, #263, .T. ) ;
#61 = CARTESIAN_POINT ( 'NONE',  ( 67.11666611398294400, 3.382604527362584000, -3.968237837377816700 ) ) ;
#62 = CARTESIAN_POINT ( 'NONE',  ( 72.73622507636586900, -1.003746007570503600, -6.918353125422780400 ) ) ;
#63 = DIRECTION ( 'NONE',  ( -0.9659258262890699800, 0.0000000000000000000, -0.2588190451025145800 ) ) ;
#64 = ORIENTED_EDGE ( 'NONE', *, *, #152, .F. ) ;
#65 = VERTEX_POINT ( 'NONE', #229 ) ;
#66 = FACE_OUTER_BOUND ( 'NONE', #77, .T. ) ;
#67 = CARTESIAN_POINT ( 'NONE',  ( 70.73819196838000800, 4.745111625010615300, 1.580164033342687400 ) ) ;
#68 = APPLICATION_PROTOCOL_DEFINITION ( 'draft international standard', 'automotive_design', 1998, #96 ) ;
#69 = ORIENTED_EDGE ( 'NONE', *, *, #100, .F. ) ;
#70 = FILL_AREA_STYLE ('',( #175 ) ) ;
#71 = ADVANCED_FACE ( 'NONE', ( #118 ), #302, .T. ) ;
#72 = APPLICATION_PROTOCOL_DEFINITION ( 'draft international standard', 'automotive_design', 1998, #309 ) ;
#73 =( NAMED_UNIT ( * ) PLANE_ANGLE_UNIT ( ) SI_UNIT ( $, .RADIAN. ) );
#74 = FACE_OUTER_BOUND ( 'NONE', #191, .T. ) ;
#75 = PRODUCT_RELATED_PRODUCT_CATEGORY ( 'part', '', ( #132 ) ) ;
#76 = ADVANCED_FACE ( 'NONE', ( #210, #220 ), #88, .T. ) ;
#77 = EDGE_LOOP ( 'NONE', ( #124 ) ) ;
#78 = CARTESIAN_POINT ( 'NONE',  ( 70.49755601922412000, 2.204585238730840200, 4.212183842988554100 ) ) ;
#79 = CARTESIAN_POINT ( 'NONE',  ( 70.92037952624960400, 4.585552619830887800, 2.438827184458532700 ) ) ;
#80 = AXIS2_PLACEMENT_3D ( 'NONE', #22, #233, #337 ) ;
#81 = CARTESIAN_POINT ( 'NONE',  ( 70.67833899371588300, 3.507203663041706500, 3.471300137185356700 ) ) ;
#82 = CARTESIAN_POINT ( 'NONE',  ( 82.75721838503955000, 0.0000000000000000000, -28.48623152323774500 ) ) ;
#83 = CARTESIAN_POINT ( 'NONE',  ( 71.80844374528834400, -5.793389616582537400, -1.789260225582858900 ) ) ;
#84 = ORIENTED_EDGE ( 'NONE', *, *, #60, .T. ) ;
#85 = CARTESIAN_POINT ( 'NONE',  ( 0.0000000000000000000, 0.0000000000000000000, 0.0000000000000000000 ) ) ;
#86 = EDGE_CURVE ( 'NONE', #149, #149, #280, .T. ) ;
#87 = CARTESIAN_POINT ( 'NONE',  ( 70.25000000000000000, 0.8479989507778626900, -4.419377533033316000 ) ) ;
#88 = TOROIDAL_SURFACE ( 'NONE', #239, 4.000000000000000000, 1.000000000000000400 ) ;
#89 = DIRECTION ( 'NONE',  ( -1.000000000000000000, -0.0000000000000000000, -0.0000000000000000000 ) ) ;
#90 = ORIENTED_EDGE ( 'NONE', *, *, #165, .F. ) ;
#91 = SURFACE_STYLE_FILL_AREA ( #145 ) ;
#92 = SURFACE_SIDE_STYLE ('',( #91 ) ) ;
#93 = PRODUCT_CONTEXT ( 'NONE', #309, 'mechanical' ) ;
#94 = B_SPLINE_CURVE_WITH_KNOTS ( 'NONE', 3,
 ( #27, #79, #240, #273, #81, #29, #188, #237, #78, #272, #159, #213, #323, #298, #211, #269, #103, #212, #161, #105, #295, #270, #58, #133, #108, #322, #137, #319, #136, #164, #324, #8, #163, #215, #83, #186, #241, #214, #3, #160, #296, #294, #28, #134, #183, #30, #5, #32, #59, #130, #236, #221, #62, #41, #142, #198 ),
 .UNSPECIFIED., .F., .F.,
 ( 4, 2, 2, 2, 2, 2, 2, 2, 2, 2, 2, 2, 2, 2, 2, 2, 2, 2, 2, 2, 2, 2, 2, 2, 2, 2, 2, 4 ),
 ( 0.01772503072851104900, 0.01923395461028932700, 0.01998841655117846600, 0.02074287849206760800, 0.02149734043295674700, 0.02225180237384588600, 0.02300626431473502800, 0.02376072625562417100, 0.02526965013740244800, 0.02602411207829158700, 0.02677857401918072600, 0.02828749790095901100, 0.02904195984184814600, 0.02979642178273728100, 0.03130534566451555900, 0.03205980760540469400, 0.03281426954629383700, 0.03356873148718296500, 0.03432319342807210700, 0.03507765536896124300, 0.03583211730985037800, 0.03658657925073951400, 0.03734104119162864900, 0.03809550313251778400, 0.03884996507340692000, 0.04035888895518519700, 0.04111335089607433300, 0.04186781283696346800 ),
 .UNSPECIFIED. ) ;
#95 = ORIENTED_EDGE ( 'NONE', *, *, #245, .F. ) ;
#96 = APPLICATION_CONTEXT ( 'automotive_design' ) ;
#97 = DIRECTION ( 'NONE',  ( 0.0000000000000000000, 0.0000000000000000000, -1.000000000000000000 ) ) ;
#98 = CARTESIAN_POINT ( 'NONE',  ( 73.11314822536952800, 4.081727543251392200, 3.016953524845889900 ) ) ;
#99 = ORIENTED_EDGE ( 'NONE', *, *, #46, .T. ) ;
#100 = EDGE_CURVE ( 'NONE', #206, #271, #38, .T. ) ;
#101 = ADVANCED_FACE ( 'NONE', ( #293, #66 ), #286, .T. ) ;
#102 = PLANE ( 'NONE',  #116 ) ;
#103 = CARTESIAN_POINT ( 'NONE',  ( 70.42006963388566000, -1.271396841220054000, 4.521813495288244900 ) ) ;
#104 = B_SPLINE_CURVE_WITH_KNOTS ( 'NONE', 3,
 ( #306, #67, #333, #255 ),
 .UNSPECIFIED., .F., .F.,
 ( 4, 4 ),
 ( 0.003054303221289514000, 0.004650505776366332400 ),
 .UNSPECIFIED. ) ;
#105 = CARTESIAN_POINT ( 'NONE',  ( 70.55286294775690700, -2.687387282419810400, 3.988470977596327000 ) ) ;
#106 = CARTESIAN_POINT ( 'NONE',  ( 70.25000000000000000, 4.449295413234403400, 0.6736247662989463000 ) ) ;
#107 = FACE_OUTER_BOUND ( 'NONE', #55, .T. ) ;
#108 = CARTESIAN_POINT ( 'NONE',  ( 70.92813417954290900, -4.593840152754752100, 2.401980484151258600 ) ) ;
#109 = CARTESIAN_POINT ( 'NONE',  ( 70.25000000000000000, 0.8479989507778626900, -4.419377533033316000 ) ) ;
#110 = DIRECTION ( 'NONE',  ( 0.0000000000000000000, 0.0000000000000000000, 1.000000000000000000 ) ) ;
#111 = ORIENTED_EDGE ( 'NONE', *, *, #227, .F. ) ;
#112 = PRODUCT_DEFINITION_SHAPE ( 'NONE', 'NONE',  #321 ) ;
#113 = CARTESIAN_POINT ( 'NONE',  ( 70.25000000000000000, 0.0000000000000000000, 0.0000000000000000000 ) ) ;
#114 = CARTESIAN_POINT ( 'NONE',  ( 74.21130660347807900, 3.581402500960616300, 3.407545442551929600 ) ) ;
#115 = ORIENTED_EDGE ( 'NONE', *, *, #253, .T. ) ;
#116 = AXIS2_PLACEMENT_3D ( 'NONE', #129, #318, #158 ) ;
#117 = ORIENTED_EDGE ( 'NONE', *, *, #245, .T. ) ;
#118 = FACE_OUTER_BOUND ( 'NONE', #226, .T. ) ;
#119 = CARTESIAN_POINT ( 'NONE',  ( 73.82242194458253000, -4.076849707949733700, 4.858882747834239300 ) ) ;
#120 = ORIENTED_EDGE ( 'NONE', *, *, #232, .F. ) ;
#121 = AXIS2_PLACEMENT_3D ( 'NONE', #299, #63, #169 ) ;
#122 = ORIENTED_EDGE ( 'NONE', *, *, #177, .T. ) ;
#123 = ADVANCED_FACE ( 'NONE', ( #199 ), #320, .T. ) ;
#124 = ORIENTED_EDGE ( 'NONE', *, *, #7, .T. ) ;
#125 = DIRECTION ( 'NONE',  ( 1.000000000000000000, 0.0000000000000000000, 0.0000000000000000000 ) ) ;
#126 = ADVANCED_FACE ( 'NONE', ( #16 ), #102, .F. ) ;
#127 = EDGE_CURVE ( 'NONE', #57, #2, #339, .T. ) ;
#128 = CARTESIAN_POINT ( 'NONE',  ( 75.28163914958557300, 0.0000000000000000000, -0.5869900005159526300 ) ) ;
#129 = CARTESIAN_POINT ( 'NONE',  ( 0.0000000000000000000, 0.0000000000000000000, 0.0000000000000000000 ) ) ;
#130 = CARTESIAN_POINT ( 'NONE',  ( 72.66231288044416200, -2.452507101925812000, -6.482295450744329600 ) ) ;
#131 = CIRCLE ( 'NONE', #291, 4.000000000000000000 ) ;
#132 = PRODUCT ( 'U10.B14.002.043', 'U10.B14.002.043', '', ( #93 ) ) ;
#133 = CARTESIAN_POINT ( 'NONE',  ( 70.88410463226460900, -4.437206650294880800, 2.594235782231984800 ) ) ;
#134 = CARTESIAN_POINT ( 'NONE',  ( 72.39673520046434900, -4.435317634224352500, -4.956739836073891700 ) ) ;
#135 = VERTEX_POINT ( 'NONE', #106 ) ;
#136 = CARTESIAN_POINT ( 'NONE',  ( 71.31068161031308300, -5.542352975931085400, 0.6647227551030933100 ) ) ;
#137 = CARTESIAN_POINT ( 'NONE',  ( 71.06739077400227700, -5.015544019207966100, 1.782775898793447000 ) ) ;
#138 = COLOUR_RGB ( '',1.000000000000000000, 1.000000000000000000, 0.5019607843137254800 ) ;
#139 = CIRCLE ( 'NONE', #248, 5.000000000000000000 ) ;
#140 =( LENGTH_UNIT ( ) NAMED_UNIT ( * ) SI_UNIT ( .MILLI., .METRE. ) );
#141 =( BOUNDED_CURVE ( )  B_SPLINE_CURVE ( 3, ( #34, #297, #61, #109 ),
 .UNSPECIFIED., .F., .F. ) 
 B_SPLINE_CURVE_WITH_KNOTS ( ( 4, 4 ),
 ( 5.504107364139595200, 7.062263250219576300 ),
 .UNSPECIFIED. ) 
 CURVE ( )  GEOMETRIC_REPRESENTATION_ITEM ( )  RATIONAL_B_SPLINE_CURVE ( ( 1.000000000000000000, 0.8077077995988464200, 0.8077077995988464200, 1.000000000000000000 ) ) 
 REPRESENTATION_ITEM ( '' )  );
#142 = CARTESIAN_POINT ( 'NONE',  ( 72.74999999999997200, -0.2517066026764425100, -7.000000000000008900 ) ) ;
#143 = PRESENTATION_LAYER_ASSIGNMENT (  '', '', ( #313 ) ) ;
#144 = PRODUCT_DEFINITION_CONTEXT ( 'detailed design', #96, 'design' ) ;
#145 = FILL_AREA_STYLE ('',( #171 ) ) ;
#146 = VECTOR ( 'NONE', #303, 1000.000000000000100 ) ;
#147 = ORIENTED_EDGE ( 'NONE', *, *, #227, .T. ) ;
#148 = PLANE ( 'NONE',  #197 ) ;
#149 = VERTEX_POINT ( 'NONE', #279 ) ;
#150 = VERTEX_POINT ( 'NONE', #153 ) ;
#151 = CARTESIAN_POINT ( 'NONE',  ( 34.43431457505063500, 0.0000000000000000000, -41.43431457505076300 ) ) ;
#152 = EDGE_CURVE ( 'NONE', #135, #325, #141, .T. ) ;
#153 = CARTESIAN_POINT ( 'NONE',  ( 72.75000000000000000, -1.879426396809230900E-021, -7.000000000000012400 ) ) ;
#154 = CARTESIAN_POINT ( 'NONE',  ( 70.60898754317499000, 0.2833052053886551100, -4.858987543175007100 ) ) ;
#155 = DIRECTION ( 'NONE',  ( 0.0000000000000000000, -1.000000000000000000, 0.0000000000000000000 ) ) ;
#156 = CARTESIAN_POINT ( 'NONE',  ( 72.03796316038302900, 4.512097589358758000, 2.550403615903560800 ) ) ;
#157 =( GEOMETRIC_REPRESENTATION_CONTEXT ( 3 ) GLOBAL_UNCERTAINTY_ASSIGNED_CONTEXT ( ( #33 ) ) GLOBAL_UNIT_ASSIGNED_CONTEXT ( ( #336, #73, #17 ) ) REPRESENTATION_CONTEXT ( 'NONE', 'WORKASPACE' ) );
#158 = DIRECTION ( 'NONE',  ( 0.0000000000000000000, 0.0000000000000000000, -1.000000000000000000 ) ) ;
#159 = CARTESIAN_POINT ( 'NONE',  ( 70.43718864722311000, 1.483317378415389700, 4.453399971853748700 ) ) ;
#160 = CARTESIAN_POINT ( 'NONE',  ( 72.16867086049235500, -5.254955744120549000, -3.693923068759998900 ) ) ;
#161 = CARTESIAN_POINT ( 'NONE',  ( 70.50039141405409300, -2.231894445254117600, 4.200871864490300900 ) ) ;
#162 = LINE ( 'NONE', #217, #223 ) ;
#163 = CARTESIAN_POINT ( 'NONE',  ( 71.66185227755698900, -5.823679499378518400, -1.045687616749058700 ) ) ;
#164 = CARTESIAN_POINT ( 'NONE',  ( 71.46223129253060300, -5.717104113198971900, -0.06241088151779489900 ) ) ;
#165 = EDGE_CURVE ( 'NONE', #271, #150, #94, .T. ) ;
#166 = DIRECTION ( 'NONE',  ( 0.0000000000000000000, 0.0000000000000000000, 1.000000000000000000 ) ) ;
#167 = CARTESIAN_POINT ( 'NONE',  ( 77.00000000000000000, 0.0000000000000000000, -7.000000000000012400 ) ) ;
#168 = ORIENTED_EDGE ( 'NONE', *, *, #100, .T. ) ;
#169 = DIRECTION ( 'NONE',  ( -0.2588190451025145800, 0.0000000000000000000, 0.9659258262890699800 ) ) ;
#170 = CARTESIAN_POINT ( 'NONE',  ( 71.01420860532712700, 4.861121925719609200, 2.020244010927459300 ) ) ;
#171 = FILL_AREA_STYLE_COLOUR ( '', #138 ) ;
#172 = FACE_OUTER_BOUND ( 'NONE', #181, .T. ) ;
#173 = ORIENTED_EDGE ( 'NONE', *, *, #60, .F. ) ;
#174 = EDGE_LOOP ( 'NONE', ( #243 ) ) ;
#175 = FILL_AREA_STYLE_COLOUR ( '', #332 ) ;
#176 = DIRECTION ( 'NONE',  ( -1.000000000000000000, -0.0000000000000000000, -0.0000000000000000000 ) ) ;
#177 = EDGE_CURVE ( 'NONE', #315, #315, #131, .T. ) ;
#178 = CARTESIAN_POINT ( 'NONE',  ( -79.66162912480135100, 0.0000000000000000000, -6.999999999999999100 ) ) ;
#179 = ORIENTED_EDGE ( 'NONE', *, *, #86, .T. ) ;
#180 = CARTESIAN_POINT ( 'NONE',  ( 77.00000000000000000, 0.0000000000000000000, -7.000000000000012400 ) ) ;
#181 = EDGE_LOOP ( 'NONE', ( #69, #308, #120, #330, #64, #234 ) ) ;
#182 = ORIENTED_EDGE ( 'NONE', *, *, #253, .F. ) ;
#183 = CARTESIAN_POINT ( 'NONE',  ( 72.43016134397998900, -4.267172236377540200, -5.145622284662787000 ) ) ;
#184 = ORIENTED_EDGE ( 'NONE', *, *, #46, .F. ) ;
#185 = AXIS2_PLACEMENT_3D ( 'NONE', #151, #155, #342 ) ;
#186 = CARTESIAN_POINT ( 'NONE',  ( 71.90390490205142300, -5.719916617028953700, -2.283237663337885700 ) ) ;
#187 = ADVANCED_BREP_SHAPE_REPRESENTATION ( 'U10.B14.002.043', ( #290, #287 ), #157 ) ;
#188 = CARTESIAN_POINT ( 'NONE',  ( 70.57842635735505600, 2.878956309428155600, 3.884188145963617600 ) ) ;
#189 = VECTOR ( 'NONE', #23, 1000.000000000000000 ) ;
#190 = DIRECTION ( 'NONE',  ( 0.7071067811865487900, -0.0000000000000000000, 0.7071067811865463500 ) ) ;
#191 = EDGE_LOOP ( 'NONE', ( #42, #117, #257 ) ) ;
#192 = AXIS2_PLACEMENT_3D ( 'NONE', #48, #20, #97 ) ;
#193 = CARTESIAN_POINT ( 'NONE',  ( 74.93310934966214600, -5.503259170997459600, 0.7137409207501822500 ) ) ;
#194 = EDGE_LOOP ( 'NONE', ( #45 ) ) ;
#195 = ORIENTED_EDGE ( 'NONE', *, *, #86, .F. ) ;
#196 = VECTOR ( 'NONE', #1, 999.9999999999998900 ) ;
#197 = AXIS2_PLACEMENT_3D ( 'NONE', #282, #9, #246 ) ;
#198 = CARTESIAN_POINT ( 'NONE',  ( 72.75000000000000000, -1.879426396809230900E-021, -7.000000000000012400 ) ) ;
#199 = FACE_OUTER_BOUND ( 'NONE', #266, .T. ) ;
#200 = CARTESIAN_POINT ( 'NONE',  ( 0.0000000000000000000, 0.0000000000000000000, 0.0000000000000000000 ) ) ;
#201 = ADVANCED_FACE ( 'NONE', ( #172 ), #148, .F. ) ;
#202 = SURFACE_SIDE_STYLE ('',( #305 ) ) ;
#203 = DIRECTION ( 'NONE',  ( -1.000000000000000000, -0.0000000000000000000, -0.0000000000000000000 ) ) ;
#204 = PRESENTATION_STYLE_ASSIGNMENT (( #43 ) ) ;
#205 = CARTESIAN_POINT ( 'NONE',  ( 34.00000000000000000, 0.0000000000000000000, 0.0000000000000000000 ) ) ;
#206 = VERTEX_POINT ( 'NONE', #224 ) ;
#207 = CARTESIAN_POINT ( 'NONE',  ( 71.01420860532712700, 4.861121925719609200, 2.020244010927459300 ) ) ;
#208 = AXIS2_PLACEMENT_3D ( 'NONE', #316, #338, #49 ) ;
#209 = CARTESIAN_POINT ( 'NONE',  ( 70.42075758120239500, 0.5660539439819054500, -4.647350404285136300 ) ) ;
#210 = FACE_OUTER_BOUND ( 'NONE', #174, .T. ) ;
#211 = CARTESIAN_POINT ( 'NONE',  ( 70.38855266846307800, -0.01352739511209049100, 4.645512510084249600 ) ) ;
#212 = CARTESIAN_POINT ( 'NONE',  ( 70.47727003683024800, -1.993894280235449800, 4.293587288914811700 ) ) ;
#213 = CARTESIAN_POINT ( 'NONE',  ( 70.41015027598862700, 0.9910571617264640800, 4.560490175052092500 ) ) ;
#214 = CARTESIAN_POINT ( 'NONE',  ( 72.04017683048090200, -5.533010549923847800, -3.001884738377854900 ) ) ;
#215 = CARTESIAN_POINT ( 'NONE',  ( 71.75970238838222300, -5.814096856714551000, -1.539970353388997700 ) ) ;
#216 = MECHANICAL_DESIGN_GEOMETRIC_PRESENTATION_REPRESENTATION (  '', ( #313 ), #21 ) ;
#217 = CARTESIAN_POINT ( 'NONE',  ( 65.75000000000005700, 0.0000000000000000000, 0.0000000000000000000 ) ) ;
#218 = CARTESIAN_POINT ( 'NONE',  ( 77.00000000000000000, -4.383702170872682700, -7.000000000000011500 ) ) ;
#219 = FACE_BOUND ( 'NONE', #51, .T. ) ;
#220 = FACE_OUTER_BOUND ( 'NONE', #329, .T. ) ;
#221 = CARTESIAN_POINT ( 'NONE',  ( 72.72782910048360300, -1.255287974358803900, -6.868636444176012800 ) ) ;
#222 = UNCERTAINTY_MEASURE_WITH_UNIT (LENGTH_MEASURE( 1.000000000000000100E-005 ), #140, 'distance_accuracy_value', 'NONE');
#223 = VECTOR ( 'NONE', #278, 999.9999999999998900 ) ;
#224 = CARTESIAN_POINT ( 'NONE',  ( 74.21130660347807900, 3.581402500960616300, 3.407545442551929600 ) ) ;
#225 = CARTESIAN_POINT ( 'NONE',  ( 73.48849516997319100, 0.1259768766978786600, 6.105114436683924900 ) ) ;
#226 = EDGE_LOOP ( 'NONE', ( #95, #168, #311, #99 ) ) ;
#227 = EDGE_CURVE ( 'NONE', #37, #150, #162, .T. ) ;
#228 = CARTESIAN_POINT ( 'NONE',  ( 34.00000000000000000, 0.0000000000000000000, 4.900000000000000400 ) ) ;
#229 = CARTESIAN_POINT ( 'NONE',  ( 33.94226497308103100, 0.0000000000000000000, 5.000000000000000000 ) ) ;
#230 = CARTESIAN_POINT ( 'NONE',  ( 70.25000000000000000, 0.0000000000000000000, 0.0000000000000000000 ) ) ;
#231 = CARTESIAN_POINT ( 'NONE',  ( 74.21130660347807900, 3.581402500960616300, 3.407545442551929600 ) ) ;
#232 = EDGE_CURVE ( 'NONE', #37, #57, #14, .T. ) ;
#233 = DIRECTION ( 'NONE',  ( -1.000000000000000000, -0.0000000000000000000, -0.0000000000000000000 ) ) ;
#234 = ORIENTED_EDGE ( 'NONE', *, *, #277, .F. ) ;
#235 = ADVANCED_FACE ( 'NONE', ( #292, #219 ), #31, .T. ) ;
#236 = CARTESIAN_POINT ( 'NONE',  ( 72.69472280793341700, -1.988249010989824500, -6.673177873430013600 ) ) ;
#237 = CARTESIAN_POINT ( 'NONE',  ( 70.52236962691583200, 2.434476325322932700, 4.112230875545576800 ) ) ;
#238 = EDGE_LOOP ( 'NONE', ( #115 ) ) ;
#239 = AXIS2_PLACEMENT_3D ( 'NONE', #288, #24, #268 ) ;
#240 = CARTESIAN_POINT ( 'NONE',  ( 70.83369264200172200, 4.262115620584108200, 2.814357108708691600 ) ) ;
#241 = CARTESIAN_POINT ( 'NONE',  ( 71.95020607726132800, -5.667670876413656500, -2.525718790070717200 ) ) ;
#242 = PLANE ( 'NONE',  #121 ) ;
#243 = ORIENTED_EDGE ( 'NONE', *, *, #177, .F. ) ;
#244 = CARTESIAN_POINT ( 'NONE',  ( 74.32597970750509800, 3.197698816485235800, 2.979579592061354400 ) ) ;
#245 = EDGE_CURVE ( 'NONE', #206, #2, #247, .T. ) ;
#246 = DIRECTION ( 'NONE',  ( 0.0000000000000000000, -0.5773502691896276200, -0.8164965809277247000 ) ) ;
#247 =( BOUNDED_CURVE ( )  B_SPLINE_CURVE ( 3, ( #114, #225, #119, #193, #15, #218, #167 ),
 .UNSPECIFIED., .F., .F. ) 
 B_SPLINE_CURVE_WITH_KNOTS ( ( 4, 3, 4 ),
 ( 2.478745999167717900, 4.380965653173651800, 6.283185307179586200 ),
 .UNSPECIFIED. ) 
 CURVE ( )  GEOMETRIC_REPRESENTATION_ITEM ( )  RATIONAL_B_SPLINE_CURVE ( ( 1.000000000000000000, 0.7205199872821450600, 0.7205199872821450600, 1.000000000000000000, 0.7205199872821449500, 0.7205199872821449500, 1.000000000000000000 ) ) 
 REPRESENTATION_ITEM ( '' )  );
#248 = AXIS2_PLACEMENT_3D ( 'NONE', #314, #176, #54 ) ;
#249 = FACE_OUTER_BOUND ( 'NONE', #194, .T. ) ;
#250 = UNCERTAINTY_MEASURE_WITH_UNIT (LENGTH_MEASURE( 1.000000000000000100E-005 ), #258, 'distance_accuracy_value', 'NONE');
#251 = EDGE_LOOP ( 'NONE', ( #182 ) ) ;
#252 = CARTESIAN_POINT ( 'NONE',  ( 34.00000000000000000, 0.0000000000000000000, 0.0000000000000000000 ) ) ;
#253 = EDGE_CURVE ( 'NONE', #274, #274, #6, .T. ) ;
#254 = EDGE_LOOP ( 'NONE', ( #195 ) ) ;
#255 = CARTESIAN_POINT ( 'NONE',  ( 70.25000000000000000, 4.449295413234403400, 0.6736247662989463000 ) ) ;
#256 = DIRECTION ( 'NONE',  ( 1.000000000000000000, 0.0000000000000000000, 0.0000000000000000000 ) ) ;
#257 = ORIENTED_EDGE ( 'NONE', *, *, #127, .F. ) ;
#258 =( LENGTH_UNIT ( ) NAMED_UNIT ( * ) SI_UNIT ( .MILLI., .METRE. ) );
#259 = ORIENTED_EDGE ( 'NONE', *, *, #152, .T. ) ;
#260 = AXIS2_PLACEMENT_3D ( 'NONE', #113, #89, #328 ) ;
#261 = DIRECTION ( 'NONE',  ( 0.0000000000000000000, 0.0000000000000000000, 1.000000000000000000 ) ) ;
#262 = CARTESIAN_POINT ( 'NONE',  ( 70.80931457505079200, 0.0000000000000000000, -5.059314575050740000 ) ) ;
#263 = CIRCLE ( 'NONE', #285, 4.500000000000000000 ) ;
#264 = CARTESIAN_POINT ( 'NONE',  ( 70.25000000000000000, 0.8479989507778626900, -4.419377533033316000 ) ) ;
#265 = ADVANCED_FACE ( 'NONE', ( #74 ), #242, .F. ) ;
#266 = EDGE_LOOP ( 'NONE', ( #90, #343, #173, #4, #147 ) ) ;
#267 = AXIS2_PLACEMENT_3D ( 'NONE', #205, #289, #340 ) ;
#268 = DIRECTION ( 'NONE',  ( 0.0000000000000000000, 0.0000000000000000000, 1.000000000000000000 ) ) ;
#269 = CARTESIAN_POINT ( 'NONE',  ( 70.39748778686677600, -0.7764377015581298600, 4.610366761909706000 ) ) ;
#270 = CARTESIAN_POINT ( 'NONE',  ( 70.67973031638457800, -3.539665798123483600, 3.466775619203200000 ) ) ;
#271 = VERTEX_POINT ( 'NONE', #170 ) ;
#272 = CARTESIAN_POINT ( 'NONE',  ( 70.45491472998543300, 1.728925291651426400, 4.382971662994680900 ) ) ;
#273 = CARTESIAN_POINT ( 'NONE',  ( 70.71582310812256400, 3.706122358714071500, 3.314307221495872200 ) ) ;
#274 = VERTEX_POINT ( 'NONE', #228 ) ;
#275 = CONICAL_SURFACE ( 'NONE', #267, 4.900000000000000400, 1.047197551196537500 ) ;
#276 = DIRECTION ( 'NONE',  ( -1.000000000000000000, -0.0000000000000000000, -0.0000000000000000000 ) ) ;
#277 = EDGE_CURVE ( 'NONE', #271, #135, #104, .T. ) ;
#278 = DIRECTION ( 'NONE',  ( 0.7071067811865440200, 0.0000000000000000000, -0.7071067811865511300 ) ) ;
#279 = CARTESIAN_POINT ( 'NONE',  ( 1.000000000000000900, 0.0000000000000000000, 5.000000000000000900 ) ) ;
#280 = CIRCLE ( 'NONE', #208, 5.000000000000000900 ) ;
#281 = AXIS2_PLACEMENT_3D ( 'NONE', #252, #327, #110 ) ;
#282 = CARTESIAN_POINT ( 'NONE',  ( 20.00474071877497600, 20.40649904680936500, -27.00474071877506800 ) ) ;
#283 =( NAMED_UNIT ( * ) PLANE_ANGLE_UNIT ( ) SI_UNIT ( $, .RADIAN. ) );
#284 = B_SPLINE_CURVE_WITH_KNOTS ( 'NONE', 3,
 ( #264, #209, #154, #50 ),
 .UNSPECIFIED., .F., .F.,
 ( 4, 4 ),
 ( 4.687559368682050600E-007, 0.001201074616322802400 ),
 .UNSPECIFIED. ) ;
#285 = AXIS2_PLACEMENT_3D ( 'NONE', #230, #203, #261 ) ;
#286 = CYLINDRICAL_SURFACE ( 'NONE', #80, 5.000000000000000900 ) ;
#287 = AXIS2_PLACEMENT_3D ( 'NONE', #200, #47, #256 ) ;
#288 = CARTESIAN_POINT ( 'NONE',  ( 1.000000000000000900, 0.0000000000000000000, 0.0000000000000000000 ) ) ;
#289 = DIRECTION ( 'NONE',  ( -1.000000000000000000, -0.0000000000000000000, -0.0000000000000000000 ) ) ;
#290 = MANIFOLD_SOLID_BREP ( 'Schnitt-Linear austragen3', #334 ) ;
#291 = AXIS2_PLACEMENT_3D ( 'NONE', #85, #276, #166 ) ;
#292 = FACE_OUTER_BOUND ( 'NONE', #251, .T. ) ;
#293 = FACE_OUTER_BOUND ( 'NONE', #254, .T. ) ;
#294 = CARTESIAN_POINT ( 'NONE',  ( 72.28848405991071500, -4.886173410410246600, -4.351835525939170800 ) ) ;
#295 = CARTESIAN_POINT ( 'NONE',  ( 70.58232761605748400, -2.906678085743226200, 3.868332229240159000 ) ) ;
#296 = CARTESIAN_POINT ( 'NONE',  ( 72.21001373633097800, -5.140971271145822600, -3.919640430263681800 ) ) ;
#297 = CARTESIAN_POINT ( 'NONE',  ( 67.11666611398291600, 4.868825354682045700, -1.866404186701278800 ) ) ;
#298 = CARTESIAN_POINT ( 'NONE',  ( 70.38984892008790000, 0.2408467572641224400, 4.640424953806983100 ) ) ;
#299 = CARTESIAN_POINT ( 'NONE',  ( 72.55452800366684600, -5.819981602836323400, 9.590727353940362600 ) ) ;
#300 = ORIENTED_EDGE ( 'NONE', *, *, #232, .T. ) ;
#301 = LINE ( 'NONE', #244, #146 ) ;
#302 = CYLINDRICAL_SURFACE ( 'NONE', #192, 5.819981602836323400 ) ;
#303 = DIRECTION ( 'NONE',  ( 0.1956488079738465900, -0.6546536707079772000, -0.7301712917987012200 ) ) ;
#304 = EDGE_CURVE ( 'NONE', #206, #57, #301, .T. ) ;
#305 = SURFACE_STYLE_FILL_AREA ( #70 ) ;
#306 = CARTESIAN_POINT ( 'NONE',  ( 71.01420860532712700, 4.861121925719609200, 2.020244010927459300 ) ) ;
#307 = STYLED_ITEM ( 'NONE', ( #204 ), #290 ) ;
#308 = ORIENTED_EDGE ( 'NONE', *, *, #304, .T. ) ;
#309 = APPLICATION_CONTEXT ( 'automotive_design' ) ;
#310 =( NAMED_UNIT ( * ) SI_UNIT ( $, .STERADIAN. ) SOLID_ANGLE_UNIT ( ) );
#311 = ORIENTED_EDGE ( 'NONE', *, *, #165, .T. ) ;
#312 = DIRECTION ( 'NONE',  ( 0.0000000000000000000, 0.0000000000000000000, -1.000000000000000000 ) ) ;
#313 = STYLED_ITEM ( 'NONE', ( #12 ), #187 ) ;
#314 = CARTESIAN_POINT ( 'NONE',  ( 33.94226497308103100, 0.0000000000000000000, 0.0000000000000000000 ) ) ;
#315 = VERTEX_POINT ( 'NONE', #18 ) ;
#316 = CARTESIAN_POINT ( 'NONE',  ( 1.000000000000000900, 0.0000000000000000000, 0.0000000000000000000 ) ) ;
#317 = ORIENTED_EDGE ( 'NONE', *, *, #127, .T. ) ;
#318 = DIRECTION ( 'NONE',  ( 1.000000000000000000, 0.0000000000000000000, 0.0000000000000000000 ) ) ;
#319 = CARTESIAN_POINT ( 'NONE',  ( 71.21185630054616000, -5.366707769426252400, 1.125890868309666000 ) ) ;
#320 = CONICAL_SURFACE ( 'NONE', #52, 7.000000000000000000, 0.7853981633974533900 ) ;
#321 = PRODUCT_DEFINITION ( 'UNKNOWN', '', #40, #144 ) ;
#322 = CARTESIAN_POINT ( 'NONE',  ( 71.01964294404261600, -4.882768668401696200, 1.996875284670510700 ) ) ;
#323 = CARTESIAN_POINT ( 'NONE',  ( 70.40065518339245900, 0.7425625934867299300, 4.597885094337151200 ) ) ;
#324 = CARTESIAN_POINT ( 'NONE',  ( 71.51279603263904500, -5.759624687662105600, -0.3082965605190998700 ) ) ;
#325 = VERTEX_POINT ( 'NONE', #87 ) ;
#326 = PRESENTATION_LAYER_ASSIGNMENT (  '', '', ( #307 ) ) ;
#327 = DIRECTION ( 'NONE',  ( -1.000000000000000000, -0.0000000000000000000, -0.0000000000000000000 ) ) ;
#328 = DIRECTION ( 'NONE',  ( 0.0000000000000000000, 0.0000000000000000000, 1.000000000000000000 ) ) ;
#329 = EDGE_LOOP ( 'NONE', ( #179 ) ) ;
#330 = ORIENTED_EDGE ( 'NONE', *, *, #36, .F. ) ;
#331 = MECHANICAL_DESIGN_GEOMETRIC_PRESENTATION_REPRESENTATION (  '', ( #307 ), #341 ) ;
#332 = COLOUR_RGB ( '',1.000000000000000000, 1.000000000000000000, 0.5019607843137254800 ) ;
#333 = CARTESIAN_POINT ( 'NONE',  ( 70.47945973263034600, 4.611829294615089800, 1.132942118322987500 ) ) ;
#334 = CLOSED_SHELL ( 'NONE', ( #123, #201, #126, #76, #101, #53, #235, #19, #71, #265 ) ) ;
#335 = PLANE ( 'NONE',  #185 ) ;
#336 =( LENGTH_UNIT ( ) NAMED_UNIT ( * ) SI_UNIT ( .MILLI., .METRE. ) );
#337 = DIRECTION ( 'NONE',  ( 0.0000000000000000000, 0.0000000000000000000, 1.000000000000000000 ) ) ;
#338 = DIRECTION ( 'NONE',  ( -1.000000000000000000, -0.0000000000000000000, -0.0000000000000000000 ) ) ;
#339 = LINE ( 'NONE', #82, #196 ) ;
#340 = DIRECTION ( 'NONE',  ( 0.0000000000000000000, 0.0000000000000000000, 1.000000000000000000 ) ) ;
#341 =( GEOMETRIC_REPRESENTATION_CONTEXT ( 3 ) GLOBAL_UNCERTAINTY_ASSIGNED_CONTEXT ( ( #222 ) ) GLOBAL_UNIT_ASSIGNED_CONTEXT ( ( #140, #11, #10 ) ) REPRESENTATION_CONTEXT ( 'NONE', 'WORKASPACE' ) );
#342 = DIRECTION ( 'NONE',  ( 0.0000000000000000000, 0.0000000000000000000, -1.000000000000000000 ) ) ;
#343 = ORIENTED_EDGE ( 'NONE', *, *, #277, .T. ) ;
#344 = CARTESIAN_POINT ( 'NONE',  ( 72.74999999999998600, 0.0000000000000000000, 0.0000000000000000000 ) ) ;
ENDSEC;
END-ISO-10303-21;
