ISO-10303-21;
HEADER;
FILE_DESCRIPTION (( 'STEP AP214' ),
    '1' );
FILE_NAME ('U10.B12.002.040.STEP',
    '2020-10-01T11:34:47',
    ( '' ),
    ( '' ),
    'SwSTEP 2.0',
    'SolidWorks 2017',
    '' );
FILE_SCHEMA (( 'AUTOMOTIVE_DESIGN' ));
ENDSEC;

DATA;
#1 = CARTESIAN_POINT ( 'NONE',  ( 66.53918532526715500, -4.544061293262203100, -3.175481043618174800 ) ) ;
#2 = CARTESIAN_POINT ( 'NONE',  ( 32.43431457505063500, 0.0000000000000000000, -38.43431457505076300 ) ) ;
#3 = FACE_BOUND ( 'NONE', #202, .T. ) ;
#4 = VERTEX_POINT ( 'NONE', #55 ) ;
#5 =( LENGTH_UNIT ( ) NAMED_UNIT ( * ) SI_UNIT ( .MILLI., .METRE. ) );
#6 = FILL_AREA_STYLE ('',( #63 ) ) ;
#7 =( NAMED_UNIT ( * ) SI_UNIT ( $, .STERADIAN. ) SOLID_ANGLE_UNIT ( ) );
#8 = PRESENTATION_STYLE_ASSIGNMENT (( #142 ) ) ;
#9 = FACE_OUTER_BOUND ( 'NONE', #121, .T. ) ;
#10 = CARTESIAN_POINT ( 'NONE',  ( 65.36267852058165300, 3.164588143020413500, 3.011221954635053600 ) ) ;
#11 = AXIS2_PLACEMENT_3D ( 'NONE', #51, #297, #60 ) ;
#12 = EDGE_LOOP ( 'NONE', ( #302, #309, #285, #301 ) ) ;
#13 = CONICAL_SURFACE ( 'NONE', #258, 6.000000000000000000, 0.7853981633974548300 ) ;
#14 = UNCERTAINTY_MEASURE_WITH_UNIT (LENGTH_MEASURE( 1.000000000000000100E-005 ), #218, 'distance_accuracy_value', 'NONE');
#15 = CARTESIAN_POINT ( 'NONE',  ( 65.95512637699194200, -4.959310216761523700, 0.07992767480621323900 ) ) ;
#16 = CARTESIAN_POINT ( 'NONE',  ( 65.12387978772298400, 0.7121750273377824800, 4.086963113121966800 ) ) ;
#17 = AXIS2_PLACEMENT_3D ( 'NONE', #192, #118, #62 ) ;
#18 = EDGE_LOOP ( 'NONE', ( #136 ) ) ;
#19 = CYLINDRICAL_SURFACE ( 'NONE', #123, 5.058505336172069100 ) ;
#20 = VERTEX_POINT ( 'NONE', #135 ) ;
#21 = PLANE ( 'NONE',  #41 ) ;
#22 = ORIENTED_EDGE ( 'NONE', *, *, #88, .T. ) ;
#23 = CARTESIAN_POINT ( 'NONE',  ( 69.57063733506963400, 3.086165220505567000, 3.066504895531208400 ) ) ;
#24 = DIRECTION ( 'NONE',  ( -0.9659258262890699800, 0.0000000000000000000, -0.2588190451025146900 ) ) ;
#25 = CARTESIAN_POINT ( 'NONE',  ( 66.63761476795640700, -4.206679350134093600, -3.759834843164750100 ) ) ;
#26 = DIRECTION ( 'NONE',  ( 0.0000000000000000000, 0.0000000000000000000, 1.000000000000000000 ) ) ;
#27 = EDGE_LOOP ( 'NONE', ( #188 ) ) ;
#28 = CARTESIAN_POINT ( 'NONE',  ( 66.99999999999997200, 0.0000000000000000000, 0.0000000000000000000 ) ) ;
#29 =( NAMED_UNIT ( * ) PLANE_ANGLE_UNIT ( ) SI_UNIT ( $, .RADIAN. ) );
#30 = CARTESIAN_POINT ( 'NONE',  ( 63.47079903962956100, 3.947714260809180400, -1.814919062461963100 ) ) ;
#31 =( NAMED_UNIT ( * ) PLANE_ANGLE_UNIT ( ) SI_UNIT ( $, .RADIAN. ) );
#32 = CARTESIAN_POINT ( 'NONE',  ( 1.000000000000000900, 0.0000000000000000000, 5.000000000000000900 ) ) ;
#33 = CARTESIAN_POINT ( 'NONE',  ( 0.0000000000000000000, 0.0000000000000000000, 4.000000000000000000 ) ) ;
#34 = CARTESIAN_POINT ( 'NONE',  ( 0.0000000000000000000, 0.0000000000000000000, 0.0000000000000000000 ) ) ;
#35 = ORIENTED_EDGE ( 'NONE', *, *, #106, .T. ) ;
#36 = VERTEX_POINT ( 'NONE', #243 ) ;
#37 = CARTESIAN_POINT ( 'NONE',  ( 65.33270901328874900, 2.983771046539829300, 3.149478443135613300 ) ) ;
#38 = UNCERTAINTY_MEASURE_WITH_UNIT (LENGTH_MEASURE( 1.000000000000000100E-005 ), #5, 'distance_accuracy_value', 'NONE');
#39 = CARTESIAN_POINT ( 'NONE',  ( 65.11588687654196400, 0.03540851086619552900, 4.121927956836084500 ) ) ;
#40 = CARTESIAN_POINT ( 'NONE',  ( 66.07903003021319000, -5.050450983834503300, -0.5803678689546643000 ) ) ;
#41 = AXIS2_PLACEMENT_3D ( 'NONE', #48, #24, #46 ) ;
#42 = CIRCLE ( 'NONE', #300, 5.000000000000000900 ) ;
#43 = ORIENTED_EDGE ( 'NONE', *, *, #71, .T. ) ;
#44 = AXIS2_PLACEMENT_3D ( 'NONE', #34, #57, #85 ) ;
#45 = EDGE_LOOP ( 'NONE', ( #219 ) ) ;
#46 = DIRECTION ( 'NONE',  ( -0.2588190451025146900, 0.0000000000000000000, 0.9659258262890699800 ) ) ;
#47 = AXIS2_PLACEMENT_3D ( 'NONE', #266, #138, #263 ) ;
#48 = CARTESIAN_POINT ( 'NONE',  ( 68.13946449420571100, -5.058505336172069100, 8.407714652048165100 ) ) ;
#49 = ADVANCED_FACE ( 'NONE', ( #53 ), #13, .T. ) ;
#50 = CARTESIAN_POINT ( 'NONE',  ( 65.00000000000000000, 3.993925245923305700, -0.2203659002125010800 ) ) ;
#51 = CARTESIAN_POINT ( 'NONE',  ( -79.66162912480135100, 0.0000000000000000000, 0.0000000000000000000 ) ) ;
#52 = EDGE_CURVE ( 'NONE', #159, #207, #139, .T. ) ;
#53 = FACE_OUTER_BOUND ( 'NONE', #279, .T. ) ;
#54 = CARTESIAN_POINT ( 'NONE',  ( 66.98818671700119900, -0.8980435837776358200, -5.924777992002717900 ) ) ;
#55 = CARTESIAN_POINT ( 'NONE',  ( 65.00000000000000000, 1.539071378484466300, -3.692053533188532000 ) ) ;
#56 = DIRECTION ( 'NONE',  ( -1.000000000000000000, -0.0000000000000000000, -0.0000000000000000000 ) ) ;
#57 = DIRECTION ( 'NONE',  ( -1.000000000000000000, -0.0000000000000000000, -0.0000000000000000000 ) ) ;
#58 =( NAMED_UNIT ( * ) SI_UNIT ( $, .STERADIAN. ) SOLID_ANGLE_UNIT ( ) );
#59 = CONICAL_SURFACE ( 'NONE', #104, 4.000000000000000000, 0.02726596845559448000 ) ;
#60 = DIRECTION ( 'NONE',  ( 0.0000000000000000000, 0.0000000000000000000, 1.000000000000000000 ) ) ;
#61 = ORIENTED_EDGE ( 'NONE', *, *, #71, .F. ) ;
#62 = DIRECTION ( 'NONE',  ( 0.0000000000000000000, 0.0000000000000000000, 1.000000000000000000 ) ) ;
#63 = FILL_AREA_STYLE_COLOUR ( '', #103 ) ;
#64 = DIRECTION ( 'NONE',  ( 0.0000000000000000000, 0.0000000000000000000, -1.000000000000000000 ) ) ;
#65 = SURFACE_SIDE_STYLE ('',( #130 ) ) ;
#66 = ORIENTED_EDGE ( 'NONE', *, *, #304, .F. ) ;
#67 = CARTESIAN_POINT ( 'NONE',  ( 65.11670456573801900, -0.1941183780604798500, 4.118358981733384100 ) ) ;
#68 = CARTESIAN_POINT ( 'NONE',  ( 65.38459151055529600, -3.287673128682257600, 2.909460154990835400 ) ) ;
#69 = LINE ( 'NONE', #323, #292 ) ;
#70 = EDGE_LOOP ( 'NONE', ( #179, #268, #66 ) ) ;
#71 = EDGE_CURVE ( 'NONE', #36, #182, #195, .T. ) ;
#72 = CARTESIAN_POINT ( 'NONE',  ( 66.20073561845113400, -5.054362706704857500, -1.244822274713028400 ) ) ;
#73 = PRESENTATION_LAYER_ASSIGNMENT (  '', '', ( #237 ) ) ;
#74 = ADVANCED_FACE ( 'NONE', ( #206 ), #19, .T. ) ;
#75 = LINE ( 'NONE', #317, #154 ) ;
#76 = AXIS2_PLACEMENT_3D ( 'NONE', #117, #246, #298 ) ;
#77 = CARTESIAN_POINT ( 'NONE',  ( 66.80571679122861900, -3.324561193512322700, -4.780426603029711800 ) ) ;
#78 = EDGE_CURVE ( 'NONE', #313, #256, #69, .T. ) ;
#79 = FACE_OUTER_BOUND ( 'NONE', #86, .T. ) ;
#80 = FILL_AREA_STYLE_COLOUR ( '', #201 ) ;
#81 = CARTESIAN_POINT ( 'NONE',  ( 31.94226497308103100, 0.0000000000000000000, 0.0000000000000000000 ) ) ;
#82 = CARTESIAN_POINT ( 'NONE',  ( 71.99999999999998600, -3.800841284077799600, -6.000000000000008900 ) ) ;
#83 = CARTESIAN_POINT ( 'NONE',  ( 65.24250705006248600, 1.032489368044203100, -4.165961632744888700 ) ) ;
#84 = VECTOR ( 'NONE', #108, 999.9999999999998900 ) ;
#85 = DIRECTION ( 'NONE',  ( 0.0000000000000000000, 0.0000000000000000000, 1.000000000000000000 ) ) ;
#86 = EDGE_LOOP ( 'NONE', ( #35 ) ) ;
#87 = DIRECTION ( 'NONE',  ( -0.4999999999999999400, -0.7071067811865464600, 0.5000000000000016700 ) ) ;
#88 = EDGE_CURVE ( 'NONE', #4, #182, #141, .T. ) ;
#89 = ADVANCED_BREP_SHAPE_REPRESENTATION ( 'U10.B12.002.040', ( #251, #260 ), #165 ) ;
#90 = APPLICATION_PROTOCOL_DEFINITION ( 'draft international standard', 'automotive_design', 1998, #318 ) ;
#91 = PRODUCT_CONTEXT ( 'NONE', #318, 'mechanical' ) ;
#92 = MECHANICAL_DESIGN_GEOMETRIC_PRESENTATION_REPRESENTATION (  '', ( #237 ), #278 ) ;
#93 = ORIENTED_EDGE ( 'NONE', *, *, #180, .T. ) ;
#94 = PLANE ( 'NONE',  #222 ) ;
#95 = CARTESIAN_POINT ( 'NONE',  ( 65.20727063285338000, 2.019691268293323500, 3.718541223386223400 ) ) ;
#96 = ORIENTED_EDGE ( 'NONE', *, *, #173, .F. ) ;
#97 = ORIENTED_EDGE ( 'NONE', *, *, #160, .T. ) ;
#98 = CARTESIAN_POINT ( 'NONE',  ( 65.29701147232383100, -2.745391075304499700, 3.313113024986532400 ) ) ;
#99 = MECHANICAL_DESIGN_GEOMETRIC_PRESENTATION_REPRESENTATION (  '', ( #181 ), #197 ) ;
#100 = EDGE_CURVE ( 'NONE', #255, #255, #42, .T. ) ;
#101 = ADVANCED_FACE ( 'NONE', ( #277 ), #94, .F. ) ;
#102 = LINE ( 'NONE', #2, #84 ) ;
#103 = COLOUR_RGB ( '',1.000000000000000000, 1.000000000000000000, 0.5019607843137254800 ) ;
#104 = AXIS2_PLACEMENT_3D ( 'NONE', #290, #56, #215 ) ;
#105 = CARTESIAN_POINT ( 'NONE',  ( 64.50000000000000000, 0.0000000000000000000, -0.9414946638279401100 ) ) ;
#106 = EDGE_CURVE ( 'NONE', #283, #283, #329, .T. ) ;
#107 = FACE_BOUND ( 'NONE', #116, .T. ) ;
#108 = DIRECTION ( 'NONE',  ( 0.7071067811865487900, -0.0000000000000000000, 0.7071067811865463500 ) ) ;
#109 = ORIENTED_EDGE ( 'NONE', *, *, #134, .F. ) ;
#110 = CARTESIAN_POINT ( 'NONE',  ( 66.60591217995407500, -4.327575274245489800, -3.570426087001834900 ) ) ;
#111 = DIRECTION ( 'NONE',  ( 0.0000000000000000000, 0.0000000000000000000, -1.000000000000000000 ) ) ;
#112 = CARTESIAN_POINT ( 'NONE',  ( 1.000000000000000900, 0.0000000000000000000, 0.0000000000000000000 ) ) ;
#113 =( BOUNDED_CURVE ( )  B_SPLINE_CURVE ( 3, ( #241, #333, #265, #338 ),
 .UNSPECIFIED., .F., .F. ) 
 B_SPLINE_CURVE_WITH_KNOTS ( ( 4, 4 ),
 ( 1.611496206964434700, 2.071468163884157200 ),
 .UNSPECIFIED. ) 
 CURVE ( )  GEOMETRIC_REPRESENTATION_ITEM ( )  RATIONAL_B_SPLINE_CURVE ( ( 1.000000000000000000, 0.9824463943371056800, 0.9824463943371056800, 1.000000000000000000 ) ) 
 REPRESENTATION_ITEM ( '' )  );
#114 = AXIS2_PLACEMENT_3D ( 'NONE', #223, #322, #64 ) ;
#115 = CARTESIAN_POINT ( 'NONE',  ( 65.00000000000000000, 1.539071378484466300, -3.692053533188532000 ) ) ;
#116 = EDGE_LOOP ( 'NONE', ( #168 ) ) ;
#117 = CARTESIAN_POINT ( 'NONE',  ( 32.43431457505063500, 0.0000000000000000000, -38.43431457505076300 ) ) ;
#118 = DIRECTION ( 'NONE',  ( -1.000000000000000000, -0.0000000000000000000, -0.0000000000000000000 ) ) ;
#119 = PRODUCT_DEFINITION_SHAPE ( 'NONE', 'NONE',  #126 ) ;
#120 = LINE ( 'NONE', #145, #282 ) ;
#121 = EDGE_LOOP ( 'NONE', ( #109 ) ) ;
#122 = CARTESIAN_POINT ( 'NONE',  ( 65.16597859389794700, -1.527322723624068300, 3.901864714988580600 ) ) ;
#123 = AXIS2_PLACEMENT_3D ( 'NONE', #105, #337, #111 ) ;
#124 = EDGE_CURVE ( 'NONE', #159, #20, #75, .T. ) ;
#125 = EDGE_LOOP ( 'NONE', ( #143 ) ) ;
#126 = PRODUCT_DEFINITION ( 'UNKNOWN', '', #177, #262 ) ;
#127 = CIRCLE ( 'NONE', #47, 4.900000000000000400 ) ;
#128 = EDGE_CURVE ( 'NONE', #182, #4, #316, .T. ) ;
#129 = EDGE_CURVE ( 'NONE', #36, #256, #214, .T. ) ;
#130 = SURFACE_STYLE_FILL_AREA ( #164 ) ;
#131 = ORIENTED_EDGE ( 'NONE', *, *, #128, .F. ) ;
#132 = CARTESIAN_POINT ( 'NONE',  ( 65.72144050076906300, 4.544647577363541300, 1.279913590781056400 ) ) ;
#133 = CARTESIAN_POINT ( 'NONE',  ( 65.00000000000000000, 3.993925245923305700, -0.2203659002125010800 ) ) ;
#134 = EDGE_CURVE ( 'NONE', #250, #250, #210, .T. ) ;
#135 = CARTESIAN_POINT ( 'NONE',  ( 70.49296401499071900, 0.0000000000000000000, -0.3756651351107913600 ) ) ;
#136 = ORIENTED_EDGE ( 'NONE', *, *, #100, .F. ) ;
#137 = CARTESIAN_POINT ( 'NONE',  ( 66.72646977759212900, -3.792736684549456800, -4.296197632727221100 ) ) ;
#138 = DIRECTION ( 'NONE',  ( -1.000000000000000000, -0.0000000000000000000, -0.0000000000000000000 ) ) ;
#139 =( BOUNDED_CURVE ( )  B_SPLINE_CURVE ( 3, ( #310, #291, #184, #216, #332, #82, #183 ),
 .UNSPECIFIED., .F., .T. ) 
 B_SPLINE_CURVE_WITH_KNOTS ( ( 4, 3, 4 ),
 ( 2.485413064749865800, 4.384299185964725800, 6.283185307179586200 ),
 .UNSPECIFIED. ) 
 CURVE ( )  GEOMETRIC_REPRESENTATION_ITEM ( )  RATIONAL_B_SPLINE_CURVE ( ( 1.000000000000000000, 0.7214240149092983100, 0.7214240149092983100, 1.000000000000000000, 0.7214240149092981900, 0.7214240149092981900, 1.000000000000000000 ) ) 
 REPRESENTATION_ITEM ( '' )  );
#140 = DIRECTION ( 'NONE',  ( 0.0000000000000000000, 0.0000000000000000000, 1.000000000000000000 ) ) ;
#141 = CIRCLE ( 'NONE', #17, 4.000000000000000000 ) ;
#142 = SURFACE_STYLE_USAGE ( .BOTH. , #247 ) ;
#143 = ORIENTED_EDGE ( 'NONE', *, *, #169, .F. ) ;
#144 = CARTESIAN_POINT ( 'NONE',  ( 0.0000000000000000000, 0.0000000000000000000, 0.0000000000000000000 ) ) ;
#145 = CARTESIAN_POINT ( 'NONE',  ( 77.45818027936285000, 0.0000000000000000000, -26.37020611945328600 ) ) ;
#146 = CARTESIAN_POINT ( 'NONE',  ( 63.47079903962956100, 3.027026855431824300, -3.116967677852708900 ) ) ;
#147 = FACE_OUTER_BOUND ( 'NONE', #12, .T. ) ;
#148 = CARTESIAN_POINT ( 'NONE',  ( 31.94226497308103100, 0.0000000000000000000, 5.000000000000000000 ) ) ;
#149 = CARTESIAN_POINT ( 'NONE',  ( 65.20180275966134800, -1.959562143347409700, 3.743547573676979200 ) ) ;
#150 = FACE_OUTER_BOUND ( 'NONE', #314, .T. ) ;
#151 = ORIENTED_EDGE ( 'NONE', *, *, #194, .T. ) ;
#152 = LINE ( 'NONE', #311, #284 ) ;
#153 = ADVANCED_FACE ( 'NONE', ( #199, #3 ), #59, .T. ) ;
#154 = VECTOR ( 'NONE', #319, 1000.000000000000100 ) ;
#155 = ORIENTED_EDGE ( 'NONE', *, *, #124, .T. ) ;
#156 = CARTESIAN_POINT ( 'NONE',  ( 32.00000000000000000, 0.0000000000000000000, 0.0000000000000000000 ) ) ;
#157 = CARTESIAN_POINT ( 'NONE',  ( 65.93431457505077700, 0.0000000000000000000, -4.934314575050748900 ) ) ;
#158 = CARTESIAN_POINT ( 'NONE',  ( 66.85070131795113500, -2.972530738766786300, -5.059649265023870700 ) ) ;
#159 = VERTEX_POINT ( 'NONE', #23 ) ;
#160 = EDGE_CURVE ( 'NONE', #4, #313, #272, .T. ) ;
#161 = CARTESIAN_POINT ( 'NONE',  ( 66.99765158537664400, -0.4498858119469421600, -5.985024951576562600 ) ) ;
#162 = CARTESIAN_POINT ( 'NONE',  ( 65.00000000000000000, 3.993925245923305700, -0.2203659002125010800 ) ) ;
#163 = DIRECTION ( 'NONE',  ( -1.000000000000000000, -0.0000000000000000000, -0.0000000000000000000 ) ) ;
#164 = FILL_AREA_STYLE ('',( #80 ) ) ;
#165 =( GEOMETRIC_REPRESENTATION_CONTEXT ( 3 ) GLOBAL_UNCERTAINTY_ASSIGNED_CONTEXT ( ( #233 ) ) GLOBAL_UNIT_ASSIGNED_CONTEXT ( ( #221, #29, #58 ) ) REPRESENTATION_CONTEXT ( 'NONE', 'WORKASPACE' ) );
#166 = CARTESIAN_POINT ( 'NONE',  ( 65.72144050076906300, 4.544647577363541300, 1.279913590781056400 ) ) ;
#167 =( NAMED_UNIT ( * ) SI_UNIT ( $, .STERADIAN. ) SOLID_ANGLE_UNIT ( ) );
#168 = ORIENTED_EDGE ( 'NONE', *, *, #169, .T. ) ;
#169 = EDGE_CURVE ( 'NONE', #205, #205, #127, .T. ) ;
#170 = CARTESIAN_POINT ( 'NONE',  ( 66.99999999999998600, -1.484951767988032600E-021, -6.000000000000008900 ) ) ;
#171 = CARTESIAN_POINT ( 'NONE',  ( 65.45927626425427100, 3.658689596741773200, 2.558775260800634200 ) ) ;
#172 = CARTESIAN_POINT ( 'NONE',  ( 65.70944102306705800, -4.535498536522053000, 1.343215810150132400 ) ) ;
#173 = EDGE_CURVE ( 'NONE', #313, #20, #102, .T. ) ;
#174 = CLOSED_SHELL ( 'NONE', ( #49, #101, #330, #286, #281, #239, #153, #289, #74, #175 ) ) ;
#175 = ADVANCED_FACE ( 'NONE', ( #217 ), #21, .F. ) ;
#176 = CARTESIAN_POINT ( 'NONE',  ( 66.39596822831194300, -4.865383659695650600, -2.343597151658586100 ) ) ;
#177 = PRODUCT_DEFINITION_FORMATION_WITH_SPECIFIED_SOURCE ( 'ANY', '', #185, .NOT_KNOWN. ) ;
#178 = SURFACE_STYLE_FILL_AREA ( #6 ) ;
#179 = ORIENTED_EDGE ( 'NONE', *, *, #124, .F. ) ;
#180 = EDGE_CURVE ( 'NONE', #256, #207, #152, .T. ) ;
#181 = STYLED_ITEM ( 'NONE', ( #8 ), #89 ) ;
#182 = VERTEX_POINT ( 'NONE', #133 ) ;
#183 = CARTESIAN_POINT ( 'NONE',  ( 72.00000000000000000, 0.0000000000000000000, -6.000000000000063900 ) ) ;
#184 = CARTESIAN_POINT ( 'NONE',  ( 69.24370385661042300, -3.563917425680719600, 4.286637247836186000 ) ) ;
#185 = PRODUCT ( 'U10.B12.002.040', 'U10.B12.002.040', '', ( #91 ) ) ;
#186 = CARTESIAN_POINT ( 'NONE',  ( 66.98098475413402800, -1.122942778899821400, -5.878963376244144000 ) ) ;
#187 = CARTESIAN_POINT ( 'NONE',  ( 67.00000000000001400, -0.2252286903352793700, -6.000000000000009800 ) ) ;
#188 = ORIENTED_EDGE ( 'NONE', *, *, #134, .T. ) ;
#189 = CARTESIAN_POINT ( 'NONE',  ( 66.95263515546805900, -1.776977945884444100, -5.699152885546373800 ) ) ;
#190 = DIRECTION ( 'NONE',  ( 0.0000000000000000000, 0.0000000000000000000, 1.000000000000000000 ) ) ;
#191 = CARTESIAN_POINT ( 'NONE',  ( 32.00000000000000000, 0.0000000000000000000, 4.900000000000000400 ) ) ;
#192 = CARTESIAN_POINT ( 'NONE',  ( 65.00000000000000000, 0.0000000000000000000, 0.0000000000000000000 ) ) ;
#193 = ORIENTED_EDGE ( 'NONE', *, *, #160, .F. ) ;
#194 = EDGE_CURVE ( 'NONE', #159, #36, #113, .T. ) ;
#195 = B_SPLINE_CURVE_WITH_KNOTS ( 'NONE', 3,
 ( #132, #334, #211, #50 ),
 .UNSPECIFIED., .F., .F.,
 ( 4, 4 ),
 ( 0.002400555434901194000, 0.004145977110720877300 ),
 .UNSPECIFIED. ) ;
#196 = PLANE ( 'NONE',  #76 ) ;
#197 =( GEOMETRIC_REPRESENTATION_CONTEXT ( 3 ) GLOBAL_UNCERTAINTY_ASSIGNED_CONTEXT ( ( #38 ) ) GLOBAL_UNIT_ASSIGNED_CONTEXT ( ( #5, #248, #167 ) ) REPRESENTATION_CONTEXT ( 'NONE', 'WORKASPACE' ) );
#198 = CARTESIAN_POINT ( 'NONE',  ( 65.64200071928316000, 4.349922058505921300, 1.678290996506016200 ) ) ;
#199 = FACE_OUTER_BOUND ( 'NONE', #125, .T. ) ;
#200 = CARTESIAN_POINT ( 'NONE',  ( 66.03798376148112900, -5.029880020059541900, -0.3598002391151701700 ) ) ;
#201 = COLOUR_RGB ( '',1.000000000000000000, 1.000000000000000000, 0.5019607843137254800 ) ;
#202 = EDGE_LOOP ( 'NONE', ( #22, #235 ) ) ;
#203 = CARTESIAN_POINT ( 'NONE',  ( 65.35358095473726800, -3.111437693785021900, 3.053228633194592100 ) ) ;
#204 = PRESENTATION_LAYER_ASSIGNMENT (  '', '', ( #181 ) ) ;
#205 = VERTEX_POINT ( 'NONE', #191 ) ;
#206 = FACE_OUTER_BOUND ( 'NONE', #293, .T. ) ;
#207 = VERTEX_POINT ( 'NONE', #259 ) ;
#208 = CARTESIAN_POINT ( 'NONE',  ( 66.99999999999998600, -1.484951767988032600E-021, -6.000000000000008900 ) ) ;
#209 = CARTESIAN_POINT ( 'NONE',  ( 65.00000000000000000, 1.539071378484466300, -3.692053533188532000 ) ) ;
#210 = CIRCLE ( 'NONE', #229, 5.000000000000000000 ) ;
#211 = CARTESIAN_POINT ( 'NONE',  ( 65.19589906446098800, 4.218450689847803600, 0.2930600921443480300 ) ) ;
#212 = DIRECTION ( 'NONE',  ( 0.0000000000000000000, 0.0000000000000000000, 1.000000000000000000 ) ) ;
#213 = CARTESIAN_POINT ( 'NONE',  ( 65.56792043691261500, 0.5181595593286858500, -4.567920436913012400 ) ) ;
#214 = B_SPLINE_CURVE_WITH_KNOTS ( 'NONE', 3,
 ( #166, #198, #276, #171, #306, #10, #37, #226, #95, #305, #16, #39, #67, #275, #299, #122, #149, #303, #98, #203, #68, #252, #326, #172, #249, #327, #15, #200, #40, #230, #72, #253, #280, #176, #328, #231, #1, #110, #25, #287, #137, #77, #158, #312, #189, #186, #54, #161, #187, #208 ),
 .UNSPECIFIED., .F., .F.,
 ( 4, 2, 2, 2, 2, 2, 2, 2, 2, 2, 2, 2, 2, 2, 2, 2, 2, 2, 2, 2, 2, 2, 2, 2, 4 ),
 ( 0.01472503789977161800, 0.01607561921803591500, 0.01675090987716806200, 0.01742620053630020800, 0.01877678185456449500, 0.02012736317282878100, 0.02080265383196092800, 0.02147794449109307100, 0.02282852580935735400, 0.02350381646848950100, 0.02417910712762164100, 0.02552968844588592700, 0.02688026976415021700, 0.02755556042328235700, 0.02823085108241450000, 0.02890614174154664000, 0.02958143240067878300, 0.03025672305981092600, 0.03093201371894307000, 0.03160730437807521300, 0.03228259503720735900, 0.03363317635547164600, 0.03498375767373593200, 0.03565904833286807200, 0.03633433899200021200 ),
 .UNSPECIFIED. ) ;
#215 = DIRECTION ( 'NONE',  ( 0.0000000000000000000, 0.0000000000000000000, 1.000000000000000000 ) ) ;
#216 = CARTESIAN_POINT ( 'NONE',  ( 70.20781262623903300, -4.788682668254122800, 0.6885343355594574200 ) ) ;
#217 = FACE_OUTER_BOUND ( 'NONE', #70, .T. ) ;
#218 =( LENGTH_UNIT ( ) NAMED_UNIT ( * ) SI_UNIT ( .MILLI., .METRE. ) );
#219 = ORIENTED_EDGE ( 'NONE', *, *, #100, .T. ) ;
#220 = DIRECTION ( 'NONE',  ( 0.0000000000000000000, 0.0000000000000000000, 1.000000000000000000 ) ) ;
#221 =( LENGTH_UNIT ( ) NAMED_UNIT ( * ) SI_UNIT ( .MILLI., .METRE. ) );
#222 = AXIS2_PLACEMENT_3D ( 'NONE', #270, #87, #321 ) ;
#223 = CARTESIAN_POINT ( 'NONE',  ( 0.0000000000000000000, 0.0000000000000000000, 0.0000000000000000000 ) ) ;
#224 = DIRECTION ( 'NONE',  ( 0.7071067811865430200, 0.0000000000000000000, -0.7071067811865521200 ) ) ;
#225 = TOROIDAL_SURFACE ( 'NONE', #308, 4.000000000000000000, 1.000000000000000400 ) ;
#226 = CARTESIAN_POINT ( 'NONE',  ( 65.25122955036927400, 2.422140860173938500, 3.522092170266995400 ) ) ;
#227 = EDGE_LOOP ( 'NONE', ( #232, #155, #96, #193, #131, #61 ) ) ;
#228 = ORIENTED_EDGE ( 'NONE', *, *, #106, .F. ) ;
#229 = AXIS2_PLACEMENT_3D ( 'NONE', #81, #238, #26 ) ;
#230 = CARTESIAN_POINT ( 'NONE',  ( 66.16040595752718900, -5.062691409110790600, -1.022878926472097200 ) ) ;
#231 = CARTESIAN_POINT ( 'NONE',  ( 66.50431183038583100, -4.638933221831073300, -2.970864434358679400 ) ) ;
#232 = ORIENTED_EDGE ( 'NONE', *, *, #194, .F. ) ;
#233 = UNCERTAINTY_MEASURE_WITH_UNIT (LENGTH_MEASURE( 1.000000000000000100E-005 ), #221, 'distance_accuracy_value', 'NONE');
#234 = PRODUCT_RELATED_PRODUCT_CATEGORY ( 'part', '', ( #185 ) ) ;
#235 = ORIENTED_EDGE ( 'NONE', *, *, #128, .T. ) ;
#236 = ORIENTED_EDGE ( 'NONE', *, *, #78, .T. ) ;
#237 = STYLED_ITEM ( 'NONE', ( #335 ), #251 ) ;
#238 = DIRECTION ( 'NONE',  ( -1.000000000000000000, -0.0000000000000000000, -0.0000000000000000000 ) ) ;
#239 = ADVANCED_FACE ( 'NONE', ( #9, #107 ), #267, .T. ) ;
#240 = DIRECTION ( 'NONE',  ( 1.000000000000000000, 0.0000000000000000000, 0.0000000000000000000 ) ) ;
#241 = CARTESIAN_POINT ( 'NONE',  ( 69.57063733506963400, 3.086165220505567000, 3.066504895531208400 ) ) ;
#242 = CYLINDRICAL_SURFACE ( 'NONE', #11, 5.000000000000000900 ) ;
#243 = CARTESIAN_POINT ( 'NONE',  ( 65.72144050076906300, 4.544647577363541300, 1.279913590781056400 ) ) ;
#244 = SURFACE_STYLE_USAGE ( .BOTH. , #65 ) ;
#245 = CARTESIAN_POINT ( 'NONE',  ( 1.000000000000000900, 0.0000000000000000000, 0.0000000000000000000 ) ) ;
#246 = DIRECTION ( 'NONE',  ( 0.0000000000000000000, -1.000000000000000000, 0.0000000000000000000 ) ) ;
#247 = SURFACE_SIDE_STYLE ('',( #178 ) ) ;
#248 =( NAMED_UNIT ( * ) PLANE_ANGLE_UNIT ( ) SI_UNIT ( $, .RADIAN. ) );
#249 = CARTESIAN_POINT ( 'NONE',  ( 65.78977520741855800, -4.717231226569493800, 0.9383409418120823900 ) ) ;
#250 = VERTEX_POINT ( 'NONE', #148 ) ;
#251 = MANIFOLD_SOLID_BREP ( 'Schnitt-Linear austragen3', #174 ) ;
#252 = CARTESIAN_POINT ( 'NONE',  ( 65.48231516743010200, -3.778930200432498900, 2.450974687925591100 ) ) ;
#253 = CARTESIAN_POINT ( 'NONE',  ( 66.28073263961117300, -5.007809281021460300, -1.690117543099905600 ) ) ;
#254 = ORIENTED_EDGE ( 'NONE', *, *, #129, .F. ) ;
#255 = VERTEX_POINT ( 'NONE', #32 ) ;
#256 = VERTEX_POINT ( 'NONE', #170 ) ;
#257 = AXIS2_PLACEMENT_3D ( 'NONE', #156, #315, #212 ) ;
#258 = AXIS2_PLACEMENT_3D ( 'NONE', #28, #240, #264 ) ;
#259 = CARTESIAN_POINT ( 'NONE',  ( 72.00000000000000000, 0.0000000000000000000, -6.000000000000063900 ) ) ;
#260 = AXIS2_PLACEMENT_3D ( 'NONE', #144, #220, #295 ) ;
#261 = SHAPE_DEFINITION_REPRESENTATION ( #119, #89 ) ;
#262 = PRODUCT_DEFINITION_CONTEXT ( 'detailed design', #271, 'design' ) ;
#263 = DIRECTION ( 'NONE',  ( 0.0000000000000000000, 0.0000000000000000000, 1.000000000000000000 ) ) ;
#264 = DIRECTION ( 'NONE',  ( 0.0000000000000000000, 0.0000000000000000000, -1.000000000000000000 ) ) ;
#265 = CARTESIAN_POINT ( 'NONE',  ( 66.91042776100751200, 4.201015037085718400, 1.982931052085918200 ) ) ;
#266 = CARTESIAN_POINT ( 'NONE',  ( 32.00000000000000000, 0.0000000000000000000, 0.0000000000000000000 ) ) ;
#267 = CONICAL_SURFACE ( 'NONE', #257, 4.900000000000000400, 1.047197551196537500 ) ;
#268 = ORIENTED_EDGE ( 'NONE', *, *, #52, .T. ) ;
#269 = DIRECTION ( 'NONE',  ( -1.000000000000000000, -0.0000000000000000000, -0.0000000000000000000 ) ) ;
#270 = CARTESIAN_POINT ( 'NONE',  ( 18.00474071877498300, 20.40649904680936500, -24.00474071877506800 ) ) ;
#271 = APPLICATION_CONTEXT ( 'automotive_design' ) ;
#272 = B_SPLINE_CURVE_WITH_KNOTS ( 'NONE', 3,
 ( #209, #83, #213, #157 ),
 .UNSPECIFIED., .F., .F.,
 ( 4, 4 ),
 ( 6.013995887902240000E-007, 0.002188042124982818200 ),
 .UNSPECIFIED. ) ;
#273 = APPLICATION_PROTOCOL_DEFINITION ( 'draft international standard', 'automotive_design', 1998, #271 ) ;
#274 = PLANE ( 'NONE',  #114 ) ;
#275 = CARTESIAN_POINT ( 'NONE',  ( 65.12529701896872300, -0.6456535250713970600, 4.080749096162602300 ) ) ;
#276 = CARTESIAN_POINT ( 'NONE',  ( 65.56437371192838300, 4.098133526691255700, 2.057083221008201100 ) ) ;
#277 = FACE_OUTER_BOUND ( 'NONE', #227, .T. ) ;
#278 =( GEOMETRIC_REPRESENTATION_CONTEXT ( 3 ) GLOBAL_UNCERTAINTY_ASSIGNED_CONTEXT ( ( #14 ) ) GLOBAL_UNIT_ASSIGNED_CONTEXT ( ( #218, #31, #7 ) ) REPRESENTATION_CONTEXT ( 'NONE', 'WORKASPACE' ) );
#279 = EDGE_LOOP ( 'NONE', ( #254, #43, #320, #97, #236 ) ) ;
#280 = CARTESIAN_POINT ( 'NONE',  ( 66.32005612152799800, -4.969585098163026500, -1.911584089876036800 ) ) ;
#281 = ADVANCED_FACE ( 'NONE', ( #307, #325 ), #242, .T. ) ;
#282 = VECTOR ( 'NONE', #324, 1000.000000000000000 ) ;
#283 = VERTEX_POINT ( 'NONE', #33 ) ;
#284 = VECTOR ( 'NONE', #336, 1000.000000000000000 ) ;
#285 = ORIENTED_EDGE ( 'NONE', *, *, #180, .F. ) ;
#286 = ADVANCED_FACE ( 'NONE', ( #150, #331 ), #225, .T. ) ;
#287 = CARTESIAN_POINT ( 'NONE',  ( 66.69785941544755300, -3.939590566582483100, -4.122503731561505600 ) ) ;
#288 = ORIENTED_EDGE ( 'NONE', *, *, #129, .T. ) ;
#289 = ADVANCED_FACE ( 'NONE', ( #147 ), #196, .F. ) ;
#290 = CARTESIAN_POINT ( 'NONE',  ( 65.00000000000000000, 0.0000000000000000000, 0.0000000000000000000 ) ) ;
#291 = CARTESIAN_POINT ( 'NONE',  ( 68.94929757218720600, 0.07464913435160057400, 5.385376459371269900 ) ) ;
#292 = VECTOR ( 'NONE', #224, 999.9999999999998900 ) ;
#293 = EDGE_LOOP ( 'NONE', ( #296, #151, #288, #93 ) ) ;
#294 = CARTESIAN_POINT ( 'NONE',  ( 65.93431457505077700, 0.0000000000000000000, -4.934314575050748900 ) ) ;
#295 = DIRECTION ( 'NONE',  ( 1.000000000000000000, 0.0000000000000000000, 0.0000000000000000000 ) ) ;
#296 = ORIENTED_EDGE ( 'NONE', *, *, #52, .F. ) ;
#297 = DIRECTION ( 'NONE',  ( -1.000000000000000000, -0.0000000000000000000, -0.0000000000000000000 ) ) ;
#298 = DIRECTION ( 'NONE',  ( 0.0000000000000000000, 0.0000000000000000000, -1.000000000000000000 ) ) ;
#299 = CARTESIAN_POINT ( 'NONE',  ( 65.13300495562244000, -0.8683345505127264600, 4.046998443219913500 ) ) ;
#300 = AXIS2_PLACEMENT_3D ( 'NONE', #245, #163, #140 ) ;
#301 = ORIENTED_EDGE ( 'NONE', *, *, #78, .F. ) ;
#302 = ORIENTED_EDGE ( 'NONE', *, *, #173, .T. ) ;
#303 = CARTESIAN_POINT ( 'NONE',  ( 65.27123389919816500, -2.554684406018125300, 3.430269385491298000 ) ) ;
#304 = EDGE_CURVE ( 'NONE', #20, #207, #120, .T. ) ;
#305 = CARTESIAN_POINT ( 'NONE',  ( 65.14290971022653300, 1.156566165724516800, 4.003951928103417900 ) ) ;
#306 = CARTESIAN_POINT ( 'NONE',  ( 65.42588116802866700, 3.501372867391046000, 2.716233432178748200 ) ) ;
#307 = FACE_OUTER_BOUND ( 'NONE', #18, .T. ) ;
#308 = AXIS2_PLACEMENT_3D ( 'NONE', #112, #269, #190 ) ;
#309 = ORIENTED_EDGE ( 'NONE', *, *, #304, .T. ) ;
#310 = CARTESIAN_POINT ( 'NONE',  ( 69.57063733506963400, 3.086165220505567000, 3.066504895531208400 ) ) ;
#311 = CARTESIAN_POINT ( 'NONE',  ( -79.66162912480135100, 0.0000000000000000000, -6.000000000000000000 ) ) ;
#312 = CARTESIAN_POINT ( 'NONE',  ( 66.92489862487212800, -2.190649031456508600, -5.523654976741850600 ) ) ;
#313 = VERTEX_POINT ( 'NONE', #294 ) ;
#314 = EDGE_LOOP ( 'NONE', ( #228 ) ) ;
#315 = DIRECTION ( 'NONE',  ( -1.000000000000000000, -0.0000000000000000000, -0.0000000000000000000 ) ) ;
#316 =( BOUNDED_CURVE ( )  B_SPLINE_CURVE ( 3, ( #162, #30, #146, #115 ),
 .UNSPECIFIED., .F., .F. ) 
 B_SPLINE_CURVE_WITH_KNOTS ( ( 4, 4 ),
 ( 5.697192771461312900, 6.869177842897860500 ),
 .UNSPECIFIED. ) 
 CURVE ( )  GEOMETRIC_REPRESENTATION_ITEM ( )  RATIONAL_B_SPLINE_CURVE ( ( 1.000000000000000000, 0.8887757318068541000, 0.8887757318068541000, 1.000000000000000000 ) ) 
 REPRESENTATION_ITEM ( '' )  );
#317 = CARTESIAN_POINT ( 'NONE',  ( 69.24566858943492800, 4.173531836220177200, 4.279304765111846500 ) ) ;
#318 = APPLICATION_CONTEXT ( 'automotive_design' ) ;
#319 = DIRECTION ( 'NONE',  ( 0.1956488079738467600, -0.6546536707079773100, -0.7301712917987011100 ) ) ;
#320 = ORIENTED_EDGE ( 'NONE', *, *, #88, .F. ) ;
#321 = DIRECTION ( 'NONE',  ( 0.0000000000000000000, -0.5773502691896276200, -0.8164965809277247000 ) ) ;
#322 = DIRECTION ( 'NONE',  ( 1.000000000000000000, 0.0000000000000000000, 0.0000000000000000000 ) ) ;
#323 = CARTESIAN_POINT ( 'NONE',  ( 61.00000000000005700, 0.0000000000000000000, 0.0000000000000000000 ) ) ;
#324 = DIRECTION ( 'NONE',  ( 0.2588190451025146900, 0.0000000000000000000, -0.9659258262890699800 ) ) ;
#325 = FACE_OUTER_BOUND ( 'NONE', #27, .T. ) ;
#326 = CARTESIAN_POINT ( 'NONE',  ( 65.55411232728337700, -4.061412119742883900, 2.107370783892634300 ) ) ;
#327 = CARTESIAN_POINT ( 'NONE',  ( 65.91318139045037600, -4.908890912706803000, 0.2997387032284424300 ) ) ;
#328 = CARTESIAN_POINT ( 'NONE',  ( 66.43279488831612400, -4.799284897704970900, -2.555467269795280900 ) ) ;
#329 = CIRCLE ( 'NONE', #44, 4.000000000000000000 ) ;
#330 = ADVANCED_FACE ( 'NONE', ( #79 ), #274, .F. ) ;
#331 = FACE_OUTER_BOUND ( 'NONE', #45, .T. ) ;
#332 = CARTESIAN_POINT ( 'NONE',  ( 71.17192139586762800, -6.013447910827529200, -2.909568576717271000 ) ) ;
#333 = CARTESIAN_POINT ( 'NONE',  ( 68.21641821384974900, 3.706167899957840500, 2.589101972300393000 ) ) ;
#334 = CARTESIAN_POINT ( 'NONE',  ( 65.44443178239349400, 4.394627883624253600, 0.7907449868963407600 ) ) ;
#335 = PRESENTATION_STYLE_ASSIGNMENT (( #244 ) ) ;
#336 = DIRECTION ( 'NONE',  ( 1.000000000000000000, 0.0000000000000000000, 0.0000000000000000000 ) ) ;
#337 = DIRECTION ( 'NONE',  ( 1.000000000000000000, -0.0000000000000000000, -0.0000000000000000000 ) ) ;
#338 = CARTESIAN_POINT ( 'NONE',  ( 65.72144050076906300, 4.544647577363541300, 1.279913590781056400 ) ) ;
ENDSEC;
END-ISO-10303-21;
