ISO-10303-21;
HEADER;
FILE_DESCRIPTION (( 'STEP AP214' ),
    '1' );
FILE_NAME ('U10.B12.001.040.STEP',
    '2020-10-01T11:34:51',
    ( '' ),
    ( '' ),
    'SwSTEP 2.0',
    'SolidWorks 2017',
    '' );
FILE_SCHEMA (( 'AUTOMOTIVE_DESIGN' ));
ENDSEC;

DATA;
#1 = CARTESIAN_POINT ( 'NONE',  ( 1.000000000000000900, 0.0000000000000000000, 0.0000000000000000000 ) ) ;
#2 = DIRECTION ( 'NONE',  ( 0.0000000000000000000, 0.0000000000000000000, 1.000000000000000000 ) ) ;
#3 = CYLINDRICAL_SURFACE ( 'NONE', #175, 5.000000000000000900 ) ;
#4 = DIRECTION ( 'NONE',  ( 0.0000000000000000000, 0.0000000000000000000, 1.000000000000000000 ) ) ;
#5 = AXIS2_PLACEMENT_3D ( 'NONE', #55, #223, #222 ) ;
#6 = DIRECTION ( 'NONE',  ( 0.0000000000000000000, 0.0000000000000000000, -1.000000000000000000 ) ) ;
#7 = AXIS2_PLACEMENT_3D ( 'NONE', #145, #311, #236 ) ;
#8 = ORIENTED_EDGE ( 'NONE', *, *, #117, .F. ) ;
#9 = CARTESIAN_POINT ( 'NONE',  ( 66.98818671700119900, -0.8980435837776358200, -5.924777992002717900 ) ) ;
#10 = CARTESIAN_POINT ( 'NONE',  ( 65.13300495562244000, -0.8683345505127264600, 4.046998443219913500 ) ) ;
#11 = COLOUR_RGB ( '',1.000000000000000000, 1.000000000000000000, 0.5019607843137254800 ) ;
#12 = ORIENTED_EDGE ( 'NONE', *, *, #92, .F. ) ;
#13 = CARTESIAN_POINT ( 'NONE',  ( 65.29701147232383100, -2.745391075304499700, 3.313113024986532400 ) ) ;
#14 = SURFACE_SIDE_STYLE ('',( #172 ) ) ;
#15 = ORIENTED_EDGE ( 'NONE', *, *, #141, .F. ) ;
#16 =( LENGTH_UNIT ( ) NAMED_UNIT ( * ) SI_UNIT ( .MILLI., .METRE. ) );
#17 = AXIS2_PLACEMENT_3D ( 'NONE', #1, #316, #176 ) ;
#18 = UNCERTAINTY_MEASURE_WITH_UNIT (LENGTH_MEASURE( 1.000000000000000100E-005 ), #16, 'distance_accuracy_value', 'NONE');
#19 = ADVANCED_FACE ( 'NONE', ( #25, #301 ), #164, .T. ) ;
#20 = FACE_BOUND ( 'NONE', #169, .T. ) ;
#21 = CARTESIAN_POINT ( 'NONE',  ( 32.43431457505063500, 0.0000000000000000000, -38.43431457505076300 ) ) ;
#22 = EDGE_LOOP ( 'NONE', ( #12, #267, #231 ) ) ;
#23 = CARTESIAN_POINT ( 'NONE',  ( 65.93431457505077700, 0.0000000000000000000, -4.934314575050748900 ) ) ;
#24 = PRESENTATION_STYLE_ASSIGNMENT (( #228 ) ) ;
#25 = FACE_OUTER_BOUND ( 'NONE', #111, .T. ) ;
#26 = CARTESIAN_POINT ( 'NONE',  ( 65.00000000000000000, 1.539071378484466300, -3.692053533188532000 ) ) ;
#27 = CARTESIAN_POINT ( 'NONE',  ( 71.99999999999998600, -3.800841284077799600, -6.000000000000008900 ) ) ;
#28 = CARTESIAN_POINT ( 'NONE',  ( 0.0000000000000000000, 0.0000000000000000000, 0.0000000000000000000 ) ) ;
#29 = LINE ( 'NONE', #78, #287 ) ;
#30 = ORIENTED_EDGE ( 'NONE', *, *, #32, .F. ) ;
#31 = SURFACE_SIDE_STYLE ('',( #226 ) ) ;
#32 = EDGE_CURVE ( 'NONE', #330, #42, #187, .T. ) ;
#33 = CARTESIAN_POINT ( 'NONE',  ( 66.92489862487212800, -2.190649031456508600, -5.523654976741850600 ) ) ;
#34 = CARTESIAN_POINT ( 'NONE',  ( 65.78977520741855800, -4.717231226569493800, 0.9383409418120823900 ) ) ;
#35 = CARTESIAN_POINT ( 'NONE',  ( 66.50431183038583100, -4.638933221831073300, -2.970864434358679400 ) ) ;
#36 = CARTESIAN_POINT ( 'NONE',  ( 65.20180275966134800, -1.959562143347409700, 3.743547573676979200 ) ) ;
#37 = FACE_OUTER_BOUND ( 'NONE', #289, .T. ) ;
#38 = ORIENTED_EDGE ( 'NONE', *, *, #257, .F. ) ;
#39 =( NAMED_UNIT ( * ) SI_UNIT ( $, .STERADIAN. ) SOLID_ANGLE_UNIT ( ) );
#40 = CARTESIAN_POINT ( 'NONE',  ( 31.94226497308103100, 0.0000000000000000000, 5.000000000000000000 ) ) ;
#41 = FACE_OUTER_BOUND ( 'NONE', #296, .T. ) ;
#42 = VERTEX_POINT ( 'NONE', #149 ) ;
#43 = ADVANCED_FACE ( 'NONE', ( #197, #37 ), #322, .T. ) ;
#44 = PRODUCT_DEFINITION_SHAPE ( 'NONE', 'NONE',  #213 ) ;
#45 = EDGE_CURVE ( 'NONE', #215, #215, #63, .T. ) ;
#46 = DIRECTION ( 'NONE',  ( 0.0000000000000000000, -1.000000000000000000, 0.0000000000000000000 ) ) ;
#47 = DIRECTION ( 'NONE',  ( 0.0000000000000000000, 0.0000000000000000000, 1.000000000000000000 ) ) ;
#48 = VERTEX_POINT ( 'NONE', #312 ) ;
#49 = CARTESIAN_POINT ( 'NONE',  ( 65.56792043691261500, 0.5181595593286858500, -4.567920436913012400 ) ) ;
#50 = CONICAL_SURFACE ( 'NONE', #217, 6.000000000000000000, 0.7853981633974548300 ) ;
#51 = DIRECTION ( 'NONE',  ( 0.0000000000000000000, 0.0000000000000000000, 1.000000000000000000 ) ) ;
#52 = DIRECTION ( 'NONE',  ( 1.000000000000000000, 0.0000000000000000000, 0.0000000000000000000 ) ) ;
#53 = CIRCLE ( 'NONE', #103, 4.000000000000000000 ) ;
#54 = EDGE_LOOP ( 'NONE', ( #290 ) ) ;
#55 = CARTESIAN_POINT ( 'NONE',  ( 68.13946449420571100, -5.058505336172069100, 8.407714652048165100 ) ) ;
#56 = CARTESIAN_POINT ( 'NONE',  ( 65.00000000000000000, 3.993925245923305700, -0.2203659002125010800 ) ) ;
#57 = CARTESIAN_POINT ( 'NONE',  ( 66.53918532526715500, -4.544061293262203100, -3.175481043618174800 ) ) ;
#58 = CARTESIAN_POINT ( 'NONE',  ( 66.60591217995407500, -4.327575274245489800, -3.570426087001834900 ) ) ;
#59 = EDGE_CURVE ( 'NONE', #64, #48, #272, .T. ) ;
#60 = CARTESIAN_POINT ( 'NONE',  ( 65.56437371192838300, 4.098133526691255700, 2.057083221008201100 ) ) ;
#61 = PRODUCT_CONTEXT ( 'NONE', #278, 'mechanical' ) ;
#62 = CARTESIAN_POINT ( 'NONE',  ( 0.0000000000000000000, 0.0000000000000000000, 0.0000000000000000000 ) ) ;
#63 = CIRCLE ( 'NONE', #156, 5.000000000000000000 ) ;
#64 = VERTEX_POINT ( 'NONE', #23 ) ;
#65 =( NAMED_UNIT ( * ) PLANE_ANGLE_UNIT ( ) SI_UNIT ( $, .RADIAN. ) );
#66 = EDGE_CURVE ( 'NONE', #295, #295, #70, .T. ) ;
#67 = ADVANCED_FACE ( 'NONE', ( #334 ), #69, .F. ) ;
#68 = LINE ( 'NONE', #298, #168 ) ;
#69 = PLANE ( 'NONE',  #148 ) ;
#70 = CIRCLE ( 'NONE', #81, 5.000000000000000900 ) ;
#71 = ORIENTED_EDGE ( 'NONE', *, *, #257, .T. ) ;
#72 = ADVANCED_FACE ( 'NONE', ( #100 ), #201, .T. ) ;
#73 = CARTESIAN_POINT ( 'NONE',  ( 69.24566858943492800, 4.173531836220177200, 4.279304765111846500 ) ) ;
#74 = CLOSED_SHELL ( 'NONE', ( #171, #140, #333, #43, #119, #335, #19, #67, #72, #284 ) ) ;
#75 = EDGE_CURVE ( 'NONE', #42, #254, #179, .T. ) ;
#76 = DIRECTION ( 'NONE',  ( 1.000000000000000000, 0.0000000000000000000, 0.0000000000000000000 ) ) ;
#77 = ORIENTED_EDGE ( 'NONE', *, *, #59, .F. ) ;
#78 = CARTESIAN_POINT ( 'NONE',  ( 77.45818027936285000, 0.0000000000000000000, -26.37020611945328600 ) ) ;
#79 = MECHANICAL_DESIGN_GEOMETRIC_PRESENTATION_REPRESENTATION (  '', ( #234 ), #273 ) ;
#80 = ORIENTED_EDGE ( 'NONE', *, *, #66, .F. ) ;
#81 = AXIS2_PLACEMENT_3D ( 'NONE', #120, #233, #47 ) ;
#82 = CARTESIAN_POINT ( 'NONE',  ( 66.72646977759212900, -3.792736684549456800, -4.296197632727221100 ) ) ;
#83 = CARTESIAN_POINT ( 'NONE',  ( 67.00000000000001400, -0.2252286903352793700, -6.000000000000009800 ) ) ;
#84 = FACE_OUTER_BOUND ( 'NONE', #116, .T. ) ;
#85 = ORIENTED_EDGE ( 'NONE', *, *, #75, .F. ) ;
#86 = UNCERTAINTY_MEASURE_WITH_UNIT (LENGTH_MEASURE( 1.000000000000000100E-005 ), #186, 'distance_accuracy_value', 'NONE');
#87 = AXIS2_PLACEMENT_3D ( 'NONE', #294, #263, #265 ) ;
#88 = CARTESIAN_POINT ( 'NONE',  ( 32.00000000000000000, 0.0000000000000000000, 4.900000000000000400 ) ) ;
#89 = CARTESIAN_POINT ( 'NONE',  ( 0.0000000000000000000, 0.0000000000000000000, 0.0000000000000000000 ) ) ;
#90 = PLANE ( 'NONE',  #230 ) ;
#91 = UNCERTAINTY_MEASURE_WITH_UNIT (LENGTH_MEASURE( 1.000000000000000100E-005 ), #170, 'distance_accuracy_value', 'NONE');
#92 = EDGE_CURVE ( 'NONE', #330, #337, #329, .T. ) ;
#93 = VECTOR ( 'NONE', #181, 999.9999999999998900 ) ;
#94 = ORIENTED_EDGE ( 'NONE', *, *, #92, .T. ) ;
#95 =( GEOMETRIC_REPRESENTATION_CONTEXT ( 3 ) GLOBAL_UNCERTAINTY_ASSIGNED_CONTEXT ( ( #18 ) ) GLOBAL_UNIT_ASSIGNED_CONTEXT ( ( #16, #65, #39 ) ) REPRESENTATION_CONTEXT ( 'NONE', 'WORKASPACE' ) );
#96 = DIRECTION ( 'NONE',  ( 0.7071067811865430200, 0.0000000000000000000, -0.7071067811865521200 ) ) ;
#97 = EDGE_CURVE ( 'NONE', #318, #318, #124, .T. ) ;
#98 = CARTESIAN_POINT ( 'NONE',  ( 18.00474071877498300, 20.40649904680936500, -24.00474071877506800 ) ) ;
#99 = CARTESIAN_POINT ( 'NONE',  ( 65.00000000000000000, 1.539071378484466300, -3.692053533188532000 ) ) ;
#100 = FACE_OUTER_BOUND ( 'NONE', #221, .T. ) ;
#101 = ORIENTED_EDGE ( 'NONE', *, *, #97, .T. ) ;
#102 = DIRECTION ( 'NONE',  ( -0.4999999999999999400, -0.7071067811865464600, 0.5000000000000016700 ) ) ;
#103 = AXIS2_PLACEMENT_3D ( 'NONE', #28, #151, #212 ) ;
#104 = CARTESIAN_POINT ( 'NONE',  ( 69.57063733506963400, 3.086165220505567000, 3.066504895531208400 ) ) ;
#105 =( NAMED_UNIT ( * ) PLANE_ANGLE_UNIT ( ) SI_UNIT ( $, .RADIAN. ) );
#106 = ORIENTED_EDGE ( 'NONE', *, *, #66, .T. ) ;
#107 = CARTESIAN_POINT ( 'NONE',  ( 65.70944102306705800, -4.535498536522053000, 1.343215810150132400 ) ) ;
#108 = CARTESIAN_POINT ( 'NONE',  ( 65.72144050076906300, 4.544647577363541300, 1.279913590781056400 ) ) ;
#109 = CARTESIAN_POINT ( 'NONE',  ( 65.14290971022653300, 1.156566165724516800, 4.003951928103417900 ) ) ;
#110 = CARTESIAN_POINT ( 'NONE',  ( 66.99765158537664400, -0.4498858119469421600, -5.985024951576562600 ) ) ;
#111 = EDGE_LOOP ( 'NONE', ( #237 ) ) ;
#112 = EDGE_CURVE ( 'NONE', #166, #254, #313, .T. ) ;
#113 = CARTESIAN_POINT ( 'NONE',  ( 66.43279488831612400, -4.799284897704970900, -2.555467269795280900 ) ) ;
#114 =( NAMED_UNIT ( * ) SI_UNIT ( $, .STERADIAN. ) SOLID_ANGLE_UNIT ( ) );
#115 = FACE_OUTER_BOUND ( 'NONE', #54, .T. ) ;
#116 = EDGE_LOOP ( 'NONE', ( #178 ) ) ;
#117 = EDGE_CURVE ( 'NONE', #48, #209, #68, .T. ) ;
#118 = CARTESIAN_POINT ( 'NONE',  ( 70.49296401499071900, 0.0000000000000000000, -0.3756651351107913600 ) ) ;
#119 = ADVANCED_FACE ( 'NONE', ( #177, #41 ), #3, .T. ) ;
#120 = CARTESIAN_POINT ( 'NONE',  ( 1.000000000000000900, 0.0000000000000000000, 0.0000000000000000000 ) ) ;
#121 = ORIENTED_EDGE ( 'NONE', *, *, #75, .T. ) ;
#122 = CARTESIAN_POINT ( 'NONE',  ( 65.19589906446098800, 4.218450689847803600, 0.2930600921443480300 ) ) ;
#123 = CARTESIAN_POINT ( 'NONE',  ( 65.44443178239349400, 4.394627883624253600, 0.7907449868963407600 ) ) ;
#124 = CIRCLE ( 'NONE', #196, 4.900000000000000400 ) ;
#125 = CARTESIAN_POINT ( 'NONE',  ( 68.94929757218720600, 0.07464913435160057400, 5.385376459371269900 ) ) ;
#126 = DIRECTION ( 'NONE',  ( 0.2588190451025146900, 0.0000000000000000000, -0.9659258262890699800 ) ) ;
#127 = PLANE ( 'NONE',  #137 ) ;
#128 = PRODUCT_DEFINITION_FORMATION_WITH_SPECIFIED_SOURCE ( 'ANY', '', #153, .NOT_KNOWN. ) ;
#129 = ORIENTED_EDGE ( 'NONE', *, *, #321, .F. ) ;
#130 =( NAMED_UNIT ( * ) SI_UNIT ( $, .STERADIAN. ) SOLID_ANGLE_UNIT ( ) );
#131 = CARTESIAN_POINT ( 'NONE',  ( 66.63761476795640700, -4.206679350134093600, -3.759834843164750100 ) ) ;
#132 = CARTESIAN_POINT ( 'NONE',  ( 65.27123389919816500, -2.554684406018125300, 3.430269385491298000 ) ) ;
#133 = AXIS2_PLACEMENT_3D ( 'NONE', #146, #258, #288 ) ;
#134 = CARTESIAN_POINT ( 'NONE',  ( 65.11670456573801900, -0.1941183780604798500, 4.118358981733384100 ) ) ;
#135 = CARTESIAN_POINT ( 'NONE',  ( 65.91318139045037600, -4.908890912706803000, 0.2997387032284424300 ) ) ;
#136 = CARTESIAN_POINT ( 'NONE',  ( 65.16597859389794700, -1.527322723624068300, 3.901864714988580600 ) ) ;
#137 = AXIS2_PLACEMENT_3D ( 'NONE', #98, #102, #155 ) ;
#138 = ORIENTED_EDGE ( 'NONE', *, *, #240, .T. ) ;
#139 = ORIENTED_EDGE ( 'NONE', *, *, #32, .T. ) ;
#140 = ADVANCED_FACE ( 'NONE', ( #277 ), #127, .F. ) ;
#141 = EDGE_CURVE ( 'NONE', #64, #337, #184, .T. ) ;
#142 = VERTEX_POINT ( 'NONE', #328 ) ;
#143 = ORIENTED_EDGE ( 'NONE', *, *, #185, .T. ) ;
#144 = CARTESIAN_POINT ( 'NONE',  ( 66.91042776100751200, 4.201015037085718400, 1.982931052085918200 ) ) ;
#145 = CARTESIAN_POINT ( 'NONE',  ( 64.50000000000000000, 0.0000000000000000000, -0.9414946638279401100 ) ) ;
#146 = CARTESIAN_POINT ( 'NONE',  ( 65.00000000000000000, 0.0000000000000000000, 0.0000000000000000000 ) ) ;
#147 = ORIENTED_EDGE ( 'NONE', *, *, #163, .F. ) ;
#148 = AXIS2_PLACEMENT_3D ( 'NONE', #21, #46, #207 ) ;
#149 = CARTESIAN_POINT ( 'NONE',  ( 65.72144050076906300, 4.544647577363541300, 1.279913590781056400 ) ) ;
#150 = CARTESIAN_POINT ( 'NONE',  ( 70.20781262623903300, -4.788682668254122800, 0.6885343355594574200 ) ) ;
#151 = DIRECTION ( 'NONE',  ( -1.000000000000000000, -0.0000000000000000000, -0.0000000000000000000 ) ) ;
#152 = VECTOR ( 'NONE', #96, 999.9999999999998900 ) ;
#153 = PRODUCT ( 'U10.B12.001.040', 'U10.B12.001.040', '', ( #61 ) ) ;
#154 = ORIENTED_EDGE ( 'NONE', *, *, #117, .T. ) ;
#155 = DIRECTION ( 'NONE',  ( 0.0000000000000000000, -0.5773502691896276200, -0.8164965809277247000 ) ) ;
#156 = AXIS2_PLACEMENT_3D ( 'NONE', #180, #208, #2 ) ;
#157 = DIRECTION ( 'NONE',  ( -1.000000000000000000, -0.0000000000000000000, -0.0000000000000000000 ) ) ;
#158 = CARTESIAN_POINT ( 'NONE',  ( 66.85070131795113500, -2.972530738766786300, -5.059649265023870700 ) ) ;
#159 = CARTESIAN_POINT ( 'NONE',  ( 65.33270901328874900, 2.983771046539829300, 3.149478443135613300 ) ) ;
#160 = CARTESIAN_POINT ( 'NONE',  ( 66.03798376148112900, -5.029880020059541900, -0.3598002391151701700 ) ) ;
#161 =( BOUNDED_CURVE ( )  B_SPLINE_CURVE ( 3, ( #56, #245, #332, #282 ),
 .UNSPECIFIED., .F., .F. ) 
 B_SPLINE_CURVE_WITH_KNOTS ( ( 4, 4 ),
 ( 5.697192771461312900, 6.869177842897860500 ),
 .UNSPECIFIED. ) 
 CURVE ( )  GEOMETRIC_REPRESENTATION_ITEM ( )  RATIONAL_B_SPLINE_CURVE ( ( 1.000000000000000000, 0.8887757318068541000, 0.8887757318068541000, 1.000000000000000000 ) ) 
 REPRESENTATION_ITEM ( '' )  );
#162 = CARTESIAN_POINT ( 'NONE',  ( 65.45927626425427100, 3.658689596741773200, 2.558775260800634200 ) ) ;
#163 = EDGE_CURVE ( 'NONE', #142, #142, #53, .T. ) ;
#164 = CONICAL_SURFACE ( 'NONE', #133, 4.000000000000000000, 0.02726596845559448000 ) ;
#165 = FILL_AREA_STYLE_COLOUR ( '', #11 ) ;
#166 = VERTEX_POINT ( 'NONE', #26 ) ;
#167 =( NAMED_UNIT ( * ) PLANE_ANGLE_UNIT ( ) SI_UNIT ( $, .RADIAN. ) );
#168 = VECTOR ( 'NONE', #52, 1000.000000000000000 ) ;
#169 = EDGE_LOOP ( 'NONE', ( #101 ) ) ;
#170 =( LENGTH_UNIT ( ) NAMED_UNIT ( * ) SI_UNIT ( .MILLI., .METRE. ) );
#171 = ADVANCED_FACE ( 'NONE', ( #204 ), #50, .T. ) ;
#172 = SURFACE_STYLE_FILL_AREA ( #255 ) ;
#173 = ORIENTED_EDGE ( 'NONE', *, *, #247, .F. ) ;
#174 = CARTESIAN_POINT ( 'NONE',  ( 69.57063733506963400, 3.086165220505567000, 3.066504895531208400 ) ) ;
#175 = AXIS2_PLACEMENT_3D ( 'NONE', #242, #157, #4 ) ;
#176 = DIRECTION ( 'NONE',  ( 0.0000000000000000000, 0.0000000000000000000, 1.000000000000000000 ) ) ;
#177 = FACE_OUTER_BOUND ( 'NONE', #279, .T. ) ;
#178 = ORIENTED_EDGE ( 'NONE', *, *, #45, .F. ) ;
#179 = B_SPLINE_CURVE_WITH_KNOTS ( 'NONE', 3,
 ( #235, #123, #122, #314 ),
 .UNSPECIFIED., .F., .F.,
 ( 4, 4 ),
 ( 0.002400555434901194000, 0.004145977110720877300 ),
 .UNSPECIFIED. ) ;
#180 = CARTESIAN_POINT ( 'NONE',  ( 31.94226497308103100, 0.0000000000000000000, 0.0000000000000000000 ) ) ;
#181 = DIRECTION ( 'NONE',  ( 0.7071067811865487900, -0.0000000000000000000, 0.7071067811865463500 ) ) ;
#182 = AXIS2_PLACEMENT_3D ( 'NONE', #331, #252, #281 ) ;
#183 = CARTESIAN_POINT ( 'NONE',  ( 71.17192139586762800, -6.013447910827529200, -2.909568576717271000 ) ) ;
#184 = LINE ( 'NONE', #293, #93 ) ;
#185 = EDGE_CURVE ( 'NONE', #337, #209, #29, .T. ) ;
#186 =( LENGTH_UNIT ( ) NAMED_UNIT ( * ) SI_UNIT ( .MILLI., .METRE. ) );
#187 =( BOUNDED_CURVE ( )  B_SPLINE_CURVE ( 3, ( #174, #203, #144, #292 ),
 .UNSPECIFIED., .F., .F. ) 
 B_SPLINE_CURVE_WITH_KNOTS ( ( 4, 4 ),
 ( 1.611496206964434700, 2.071468163884157200 ),
 .UNSPECIFIED. ) 
 CURVE ( )  GEOMETRIC_REPRESENTATION_ITEM ( )  RATIONAL_B_SPLINE_CURVE ( ( 1.000000000000000000, 0.9824463943371056800, 0.9824463943371056800, 1.000000000000000000 ) ) 
 REPRESENTATION_ITEM ( '' )  );
#188 = CARTESIAN_POINT ( 'NONE',  ( 32.00000000000000000, 0.0000000000000000000, 0.0000000000000000000 ) ) ;
#189 = SHAPE_DEFINITION_REPRESENTATION ( #44, #229 ) ;
#190 = ORIENTED_EDGE ( 'NONE', *, *, #112, .F. ) ;
#191 = CARTESIAN_POINT ( 'NONE',  ( 66.07903003021319000, -5.050450983834503300, -0.5803678689546643000 ) ) ;
#192 = CARTESIAN_POINT ( 'NONE',  ( 66.16040595752718900, -5.062691409110790600, -1.022878926472097200 ) ) ;
#193 = CARTESIAN_POINT ( 'NONE',  ( 65.35358095473726800, -3.111437693785021900, 3.053228633194592100 ) ) ;
#194 = CARTESIAN_POINT ( 'NONE',  ( 66.39596822831194300, -4.865383659695650600, -2.343597151658586100 ) ) ;
#195 = CARTESIAN_POINT ( 'NONE',  ( 1.000000000000000900, 0.0000000000000000000, 5.000000000000000900 ) ) ;
#196 = AXIS2_PLACEMENT_3D ( 'NONE', #188, #243, #51 ) ;
#197 = FACE_OUTER_BOUND ( 'NONE', #227, .T. ) ;
#198 = DIRECTION ( 'NONE',  ( 1.000000000000000000, 0.0000000000000000000, 0.0000000000000000000 ) ) ;
#199 = ORIENTED_EDGE ( 'NONE', *, *, #321, .T. ) ;
#200 = PRESENTATION_LAYER_ASSIGNMENT (  '', '', ( #309 ) ) ;
#201 = CYLINDRICAL_SURFACE ( 'NONE', #7, 5.058505336172069100 ) ;
#202 = MANIFOLD_SOLID_BREP ( 'Schnitt-Linear austragen3', #74 ) ;
#203 = CARTESIAN_POINT ( 'NONE',  ( 68.21641821384974900, 3.706167899957840500, 2.589101972300393000 ) ) ;
#204 = FACE_OUTER_BOUND ( 'NONE', #216, .T. ) ;
#205 = CARTESIAN_POINT ( 'NONE',  ( 61.00000000000005700, 0.0000000000000000000, 0.0000000000000000000 ) ) ;
#206 = EDGE_LOOP ( 'NONE', ( #260, #143, #8, #77 ) ) ;
#207 = DIRECTION ( 'NONE',  ( 0.0000000000000000000, 0.0000000000000000000, -1.000000000000000000 ) ) ;
#208 = DIRECTION ( 'NONE',  ( -1.000000000000000000, -0.0000000000000000000, -0.0000000000000000000 ) ) ;
#209 = VERTEX_POINT ( 'NONE', #211 ) ;
#210 = CARTESIAN_POINT ( 'NONE',  ( 65.24250705006248600, 1.032489368044203100, -4.165961632744888700 ) ) ;
#211 = CARTESIAN_POINT ( 'NONE',  ( 72.00000000000000000, 0.0000000000000000000, -6.000000000000063900 ) ) ;
#212 = DIRECTION ( 'NONE',  ( 0.0000000000000000000, 0.0000000000000000000, 1.000000000000000000 ) ) ;
#213 = PRODUCT_DEFINITION ( 'UNKNOWN', '', #128, #285 ) ;
#214 = FILL_AREA_STYLE ('',( #317 ) ) ;
#215 = VERTEX_POINT ( 'NONE', #40 ) ;
#216 = EDGE_LOOP ( 'NONE', ( #38, #121, #190, #138, #315 ) ) ;
#217 = AXIS2_PLACEMENT_3D ( 'NONE', #239, #76, #6 ) ;
#218 = CARTESIAN_POINT ( 'NONE',  ( 69.57063733506963400, 3.086165220505567000, 3.066504895531208400 ) ) ;
#219 = PLANE ( 'NONE',  #5 ) ;
#220 = CARTESIAN_POINT ( 'NONE',  ( 66.80571679122861900, -3.324561193512322700, -4.780426603029711800 ) ) ;
#221 = EDGE_LOOP ( 'NONE', ( #173, #139, #71, #154 ) ) ;
#222 = DIRECTION ( 'NONE',  ( -0.2588190451025146900, 0.0000000000000000000, 0.9659258262890699800 ) ) ;
#223 = DIRECTION ( 'NONE',  ( -0.9659258262890699800, 0.0000000000000000000, -0.2588190451025146900 ) ) ;
#224 = CARTESIAN_POINT ( 'NONE',  ( 66.20073561845113400, -5.054362706704857500, -1.244822274713028400 ) ) ;
#225 = DIRECTION ( 'NONE',  ( 0.0000000000000000000, 0.0000000000000000000, 1.000000000000000000 ) ) ;
#226 = SURFACE_STYLE_FILL_AREA ( #214 ) ;
#227 = EDGE_LOOP ( 'NONE', ( #147 ) ) ;
#228 = SURFACE_STYLE_USAGE ( .BOTH. , #14 ) ;
#229 = ADVANCED_BREP_SHAPE_REPRESENTATION ( 'U10.B12.001.040', ( #202, #286 ), #256 ) ;
#230 = AXIS2_PLACEMENT_3D ( 'NONE', #89, #307, #308 ) ;
#231 = ORIENTED_EDGE ( 'NONE', *, *, #185, .F. ) ;
#232 =( BOUNDED_CURVE ( )  B_SPLINE_CURVE ( 3, ( #218, #125, #297, #150, #183, #27, #320 ),
 .UNSPECIFIED., .F., .T. ) 
 B_SPLINE_CURVE_WITH_KNOTS ( ( 4, 3, 4 ),
 ( 2.485413064749865800, 4.384299185964725800, 6.283185307179586200 ),
 .UNSPECIFIED. ) 
 CURVE ( )  GEOMETRIC_REPRESENTATION_ITEM ( )  RATIONAL_B_SPLINE_CURVE ( ( 1.000000000000000000, 0.7214240149092983100, 0.7214240149092983100, 1.000000000000000000, 0.7214240149092981900, 0.7214240149092981900, 1.000000000000000000 ) ) 
 REPRESENTATION_ITEM ( '' )  );
#233 = DIRECTION ( 'NONE',  ( -1.000000000000000000, -0.0000000000000000000, -0.0000000000000000000 ) ) ;
#234 = STYLED_ITEM ( 'NONE', ( #253 ), #202 ) ;
#235 = CARTESIAN_POINT ( 'NONE',  ( 65.72144050076906300, 4.544647577363541300, 1.279913590781056400 ) ) ;
#236 = DIRECTION ( 'NONE',  ( 0.0000000000000000000, 0.0000000000000000000, -1.000000000000000000 ) ) ;
#237 = ORIENTED_EDGE ( 'NONE', *, *, #97, .F. ) ;
#238 = CARTESIAN_POINT ( 'NONE',  ( 65.00000000000000000, 3.993925245923305700, -0.2203659002125010800 ) ) ;
#239 = CARTESIAN_POINT ( 'NONE',  ( 66.99999999999997200, 0.0000000000000000000, 0.0000000000000000000 ) ) ;
#240 = EDGE_CURVE ( 'NONE', #166, #64, #319, .T. ) ;
#241 = ORIENTED_EDGE ( 'NONE', *, *, #45, .T. ) ;
#242 = CARTESIAN_POINT ( 'NONE',  ( -79.66162912480135100, 0.0000000000000000000, 0.0000000000000000000 ) ) ;
#243 = DIRECTION ( 'NONE',  ( -1.000000000000000000, -0.0000000000000000000, -0.0000000000000000000 ) ) ;
#244 = CARTESIAN_POINT ( 'NONE',  ( 65.12387978772298400, 0.7121750273377824800, 4.086963113121966800 ) ) ;
#245 = CARTESIAN_POINT ( 'NONE',  ( 63.47079903962956100, 3.947714260809180400, -1.814919062461963100 ) ) ;
#246 = CARTESIAN_POINT ( 'NONE',  ( 65.48231516743010200, -3.778930200432498900, 2.450974687925591100 ) ) ;
#247 = EDGE_CURVE ( 'NONE', #330, #209, #232, .T. ) ;
#248 = CARTESIAN_POINT ( 'NONE',  ( 66.69785941544755300, -3.939590566582483100, -4.122503731561505600 ) ) ;
#249 = CONICAL_SURFACE ( 'NONE', #182, 4.900000000000000400, 1.047197551196537500 ) ;
#250 = CARTESIAN_POINT ( 'NONE',  ( 66.98098475413402800, -1.122942778899821400, -5.878963376244144000 ) ) ;
#251 = APPLICATION_PROTOCOL_DEFINITION ( 'draft international standard', 'automotive_design', 1998, #276 ) ;
#252 = DIRECTION ( 'NONE',  ( -1.000000000000000000, -0.0000000000000000000, -0.0000000000000000000 ) ) ;
#253 = PRESENTATION_STYLE_ASSIGNMENT (( #268 ) ) ;
#254 = VERTEX_POINT ( 'NONE', #238 ) ;
#255 = FILL_AREA_STYLE ('',( #165 ) ) ;
#256 =( GEOMETRIC_REPRESENTATION_CONTEXT ( 3 ) GLOBAL_UNCERTAINTY_ASSIGNED_CONTEXT ( ( #91 ) ) GLOBAL_UNIT_ASSIGNED_CONTEXT ( ( #170, #167, #114 ) ) REPRESENTATION_CONTEXT ( 'NONE', 'WORKASPACE' ) );
#257 = EDGE_CURVE ( 'NONE', #42, #48, #291, .T. ) ;
#258 = DIRECTION ( 'NONE',  ( -1.000000000000000000, -0.0000000000000000000, -0.0000000000000000000 ) ) ;
#259 = COLOUR_RGB ( '',1.000000000000000000, 1.000000000000000000, 0.5019607843137254800 ) ;
#260 = ORIENTED_EDGE ( 'NONE', *, *, #141, .T. ) ;
#261 = DIRECTION ( 'NONE',  ( 0.1956488079738467600, -0.6546536707079773100, -0.7301712917987011100 ) ) ;
#262 = PRODUCT_RELATED_PRODUCT_CATEGORY ( 'part', '', ( #153 ) ) ;
#263 = DIRECTION ( 'NONE',  ( -1.000000000000000000, -0.0000000000000000000, -0.0000000000000000000 ) ) ;
#264 = VECTOR ( 'NONE', #261, 1000.000000000000100 ) ;
#265 = DIRECTION ( 'NONE',  ( 0.0000000000000000000, 0.0000000000000000000, 1.000000000000000000 ) ) ;
#266 = CARTESIAN_POINT ( 'NONE',  ( 65.93431457505077700, 0.0000000000000000000, -4.934314575050748900 ) ) ;
#267 = ORIENTED_EDGE ( 'NONE', *, *, #247, .T. ) ;
#268 = SURFACE_STYLE_USAGE ( .BOTH. , #31 ) ;
#269 = CARTESIAN_POINT ( 'NONE',  ( 65.95512637699194200, -4.959310216761523700, 0.07992767480621323900 ) ) ;
#270 = CARTESIAN_POINT ( 'NONE',  ( 65.64200071928316000, 4.349922058505921300, 1.678290996506016200 ) ) ;
#271 = CARTESIAN_POINT ( 'NONE',  ( 65.11588687654196400, 0.03540851086619552900, 4.121927956836084500 ) ) ;
#272 = LINE ( 'NONE', #205, #152 ) ;
#273 =( GEOMETRIC_REPRESENTATION_CONTEXT ( 3 ) GLOBAL_UNCERTAINTY_ASSIGNED_CONTEXT ( ( #86 ) ) GLOBAL_UNIT_ASSIGNED_CONTEXT ( ( #186, #105, #130 ) ) REPRESENTATION_CONTEXT ( 'NONE', 'WORKASPACE' ) );
#274 = CARTESIAN_POINT ( 'NONE',  ( 66.32005612152799800, -4.969585098163026500, -1.911584089876036800 ) ) ;
#275 = CARTESIAN_POINT ( 'NONE',  ( 66.28073263961117300, -5.007809281021460300, -1.690117543099905600 ) ) ;
#276 = APPLICATION_CONTEXT ( 'automotive_design' ) ;
#277 = FACE_OUTER_BOUND ( 'NONE', #310, .T. ) ;
#278 = APPLICATION_CONTEXT ( 'automotive_design' ) ;
#279 = EDGE_LOOP ( 'NONE', ( #80 ) ) ;
#280 = APPLICATION_PROTOCOL_DEFINITION ( 'draft international standard', 'automotive_design', 1998, #278 ) ;
#281 = DIRECTION ( 'NONE',  ( 0.0000000000000000000, 0.0000000000000000000, 1.000000000000000000 ) ) ;
#282 = CARTESIAN_POINT ( 'NONE',  ( 65.00000000000000000, 1.539071378484466300, -3.692053533188532000 ) ) ;
#283 = EDGE_LOOP ( 'NONE', ( #323, #199 ) ) ;
#284 = ADVANCED_FACE ( 'NONE', ( #336 ), #219, .F. ) ;
#285 = PRODUCT_DEFINITION_CONTEXT ( 'detailed design', #276, 'design' ) ;
#286 = AXIS2_PLACEMENT_3D ( 'NONE', #62, #225, #198 ) ;
#287 = VECTOR ( 'NONE', #126, 1000.000000000000000 ) ;
#288 = DIRECTION ( 'NONE',  ( 0.0000000000000000000, 0.0000000000000000000, 1.000000000000000000 ) ) ;
#289 = EDGE_LOOP ( 'NONE', ( #106 ) ) ;
#290 = ORIENTED_EDGE ( 'NONE', *, *, #163, .T. ) ;
#291 = B_SPLINE_CURVE_WITH_KNOTS ( 'NONE', 3,
 ( #108, #270, #60, #162, #304, #325, #159, #302, #305, #109, #244, #271, #134, #299, #10, #136, #36, #132, #13, #193, #303, #246, #326, #107, #34, #135, #269, #160, #191, #192, #224, #275, #274, #194, #113, #35, #57, #58, #131, #248, #82, #220, #158, #33, #324, #250, #9, #110, #83, #327 ),
 .UNSPECIFIED., .F., .F.,
 ( 4, 2, 2, 2, 2, 2, 2, 2, 2, 2, 2, 2, 2, 2, 2, 2, 2, 2, 2, 2, 2, 2, 2, 2, 4 ),
 ( 0.01472503789977161800, 0.01607561921803591500, 0.01675090987716806200, 0.01742620053630020800, 0.01877678185456449500, 0.02012736317282878100, 0.02080265383196092800, 0.02147794449109307100, 0.02282852580935735400, 0.02350381646848950100, 0.02417910712762164100, 0.02552968844588592700, 0.02688026976415021700, 0.02755556042328235700, 0.02823085108241450000, 0.02890614174154664000, 0.02958143240067878300, 0.03025672305981092600, 0.03093201371894307000, 0.03160730437807521300, 0.03228259503720735900, 0.03363317635547164600, 0.03498375767373593200, 0.03565904833286807200, 0.03633433899200021200 ),
 .UNSPECIFIED. ) ;
#292 = CARTESIAN_POINT ( 'NONE',  ( 65.72144050076906300, 4.544647577363541300, 1.279913590781056400 ) ) ;
#293 = CARTESIAN_POINT ( 'NONE',  ( 32.43431457505063500, 0.0000000000000000000, -38.43431457505076300 ) ) ;
#294 = CARTESIAN_POINT ( 'NONE',  ( 65.00000000000000000, 0.0000000000000000000, 0.0000000000000000000 ) ) ;
#295 = VERTEX_POINT ( 'NONE', #195 ) ;
#296 = EDGE_LOOP ( 'NONE', ( #241 ) ) ;
#297 = CARTESIAN_POINT ( 'NONE',  ( 69.24370385661042300, -3.563917425680719600, 4.286637247836186000 ) ) ;
#298 = CARTESIAN_POINT ( 'NONE',  ( -79.66162912480135100, 0.0000000000000000000, -6.000000000000000000 ) ) ;
#299 = CARTESIAN_POINT ( 'NONE',  ( 65.12529701896872300, -0.6456535250713970600, 4.080749096162602300 ) ) ;
#300 = MECHANICAL_DESIGN_GEOMETRIC_PRESENTATION_REPRESENTATION (  '', ( #309 ), #95 ) ;
#301 = FACE_BOUND ( 'NONE', #283, .T. ) ;
#302 = CARTESIAN_POINT ( 'NONE',  ( 65.25122955036927400, 2.422140860173938500, 3.522092170266995400 ) ) ;
#303 = CARTESIAN_POINT ( 'NONE',  ( 65.38459151055529600, -3.287673128682257600, 2.909460154990835400 ) ) ;
#304 = CARTESIAN_POINT ( 'NONE',  ( 65.42588116802866700, 3.501372867391046000, 2.716233432178748200 ) ) ;
#305 = CARTESIAN_POINT ( 'NONE',  ( 65.20727063285338000, 2.019691268293323500, 3.718541223386223400 ) ) ;
#306 = ORIENTED_EDGE ( 'NONE', *, *, #240, .F. ) ;
#307 = DIRECTION ( 'NONE',  ( 1.000000000000000000, 0.0000000000000000000, 0.0000000000000000000 ) ) ;
#308 = DIRECTION ( 'NONE',  ( 0.0000000000000000000, 0.0000000000000000000, -1.000000000000000000 ) ) ;
#309 = STYLED_ITEM ( 'NONE', ( #24 ), #229 ) ;
#310 = EDGE_LOOP ( 'NONE', ( #30, #94, #15, #306, #129, #85 ) ) ;
#311 = DIRECTION ( 'NONE',  ( 1.000000000000000000, -0.0000000000000000000, -0.0000000000000000000 ) ) ;
#312 = CARTESIAN_POINT ( 'NONE',  ( 66.99999999999998600, -1.484951767988032600E-021, -6.000000000000008900 ) ) ;
#313 = CIRCLE ( 'NONE', #87, 4.000000000000000000 ) ;
#314 = CARTESIAN_POINT ( 'NONE',  ( 65.00000000000000000, 3.993925245923305700, -0.2203659002125010800 ) ) ;
#315 = ORIENTED_EDGE ( 'NONE', *, *, #59, .T. ) ;
#316 = DIRECTION ( 'NONE',  ( -1.000000000000000000, -0.0000000000000000000, -0.0000000000000000000 ) ) ;
#317 = FILL_AREA_STYLE_COLOUR ( '', #259 ) ;
#318 = VERTEX_POINT ( 'NONE', #88 ) ;
#319 = B_SPLINE_CURVE_WITH_KNOTS ( 'NONE', 3,
 ( #99, #210, #49, #266 ),
 .UNSPECIFIED., .F., .F.,
 ( 4, 4 ),
 ( 6.013995887902240000E-007, 0.002188042124982818200 ),
 .UNSPECIFIED. ) ;
#320 = CARTESIAN_POINT ( 'NONE',  ( 72.00000000000000000, 0.0000000000000000000, -6.000000000000063900 ) ) ;
#321 = EDGE_CURVE ( 'NONE', #254, #166, #161, .T. ) ;
#322 = TOROIDAL_SURFACE ( 'NONE', #17, 4.000000000000000000, 1.000000000000000400 ) ;
#323 = ORIENTED_EDGE ( 'NONE', *, *, #112, .T. ) ;
#324 = CARTESIAN_POINT ( 'NONE',  ( 66.95263515546805900, -1.776977945884444100, -5.699152885546373800 ) ) ;
#325 = CARTESIAN_POINT ( 'NONE',  ( 65.36267852058165300, 3.164588143020413500, 3.011221954635053600 ) ) ;
#326 = CARTESIAN_POINT ( 'NONE',  ( 65.55411232728337700, -4.061412119742883900, 2.107370783892634300 ) ) ;
#327 = CARTESIAN_POINT ( 'NONE',  ( 66.99999999999998600, -1.484951767988032600E-021, -6.000000000000008900 ) ) ;
#328 = CARTESIAN_POINT ( 'NONE',  ( 0.0000000000000000000, 0.0000000000000000000, 4.000000000000000000 ) ) ;
#329 = LINE ( 'NONE', #73, #264 ) ;
#330 = VERTEX_POINT ( 'NONE', #104 ) ;
#331 = CARTESIAN_POINT ( 'NONE',  ( 32.00000000000000000, 0.0000000000000000000, 0.0000000000000000000 ) ) ;
#332 = CARTESIAN_POINT ( 'NONE',  ( 63.47079903962956100, 3.027026855431824300, -3.116967677852708900 ) ) ;
#333 = ADVANCED_FACE ( 'NONE', ( #115 ), #90, .F. ) ;
#334 = FACE_OUTER_BOUND ( 'NONE', #206, .T. ) ;
#335 = ADVANCED_FACE ( 'NONE', ( #84, #20 ), #249, .T. ) ;
#336 = FACE_OUTER_BOUND ( 'NONE', #22, .T. ) ;
#337 = VERTEX_POINT ( 'NONE', #118 ) ;
#338 = PRESENTATION_LAYER_ASSIGNMENT (  '', '', ( #234 ) ) ;
ENDSEC;
END-ISO-10303-21;
