ISO-10303-21;
HEADER;
FILE_DESCRIPTION (( 'STEP AP214' ),
    '1' );
FILE_NAME ('U10.B10.002.037.STEP',
    '2020-10-01T11:34:55',
    ( '' ),
    ( '' ),
    'SwSTEP 2.0',
    'SolidWorks 2017',
    '' );
FILE_SCHEMA (( 'AUTOMOTIVE_DESIGN' ));
ENDSEC;

DATA;
#1 = CARTESIAN_POINT ( 'NONE',  ( 63.00000000000000000, 0.0000000000000000000, 0.0000000000000000000 ) ) ;
#2 = LINE ( 'NONE', #39, #329 ) ;
#3 = EDGE_CURVE ( 'NONE', #163, #163, #208, .T. ) ;
#4 = CARTESIAN_POINT ( 'NONE',  ( 63.11032153064205400, 1.648346543150387200, 3.289326353021996900 ) ) ;
#5 = ORIENTED_EDGE ( 'NONE', *, *, #36, .T. ) ;
#6 = CARTESIAN_POINT ( 'NONE',  ( 64.29235117793950800, -2.887955196604473400, -3.891250488325192200 ) ) ;
#7 = PRODUCT_DEFINITION_SHAPE ( 'NONE', 'NONE',  #148 ) ;
#8 = DIRECTION ( 'NONE',  ( 0.1956488079738465900, -0.6546536707079769800, -0.7301712917987014400 ) ) ;
#9 =( BOUNDED_CURVE ( )  B_SPLINE_CURVE ( 3, ( #28, #261, #210, #60 ),
 .UNSPECIFIED., .F., .F. ) 
 B_SPLINE_CURVE_WITH_KNOTS ( ( 4, 4 ),
 ( 1.603002245191851300, 1.949878510078825600 ),
 .UNSPECIFIED. ) 
 CURVE ( )  GEOMETRIC_REPRESENTATION_ITEM ( )  RATIONAL_B_SPLINE_CURVE ( ( 1.000000000000000000, 0.9899981810401259400, 0.9899981810401259400, 1.000000000000000000 ) ) 
 REPRESENTATION_ITEM ( '' )  );
#10 = EDGE_LOOP ( 'NONE', ( #178, #193, #206, #226 ) ) ;
#11 = CYLINDRICAL_SURFACE ( 'NONE', #279, 4.300117351944661200 ) ;
#12 = CARTESIAN_POINT ( 'NONE',  ( 1.000000000000000900, 0.0000000000000000000, 0.0000000000000000000 ) ) ;
#13 = DIRECTION ( 'NONE',  ( 0.0000000000000000000, 0.0000000000000000000, -1.000000000000000000 ) ) ;
#14 = FILL_AREA_STYLE_COLOUR ( '', #84 ) ;
#15 = FACE_BOUND ( 'NONE', #59, .T. ) ;
#16 = DIRECTION ( 'NONE',  ( 0.0000000000000000000, 0.0000000000000000000, 1.000000000000000000 ) ) ;
#17 = EDGE_CURVE ( 'NONE', #45, #254, #281, .T. ) ;
#18 = DIRECTION ( 'NONE',  ( 0.7071067811865491300, 0.0000000000000000000, -0.7071067811865459100 ) ) ;
#19 = EDGE_LOOP ( 'NONE', ( #239, #256, #228, #172 ) ) ;
#20 = AXIS2_PLACEMENT_3D ( 'NONE', #299, #333, #102 ) ;
#21 = FACE_OUTER_BOUND ( 'NONE', #71, .T. ) ;
#22 = MANIFOLD_SOLID_BREP ( 'Schnitt-Linear austragen3', #253 ) ;
#23 = FILL_AREA_STYLE_COLOUR ( '', #87 ) ;
#24 = ADVANCED_FACE ( 'NONE', ( #337, #15 ), #300, .T. ) ;
#25 = B_SPLINE_CURVE_WITH_KNOTS ( 'NONE', 3,
 ( #291, #35, #166, #88, #190, #317, #212, #4, #269, #64, #238, #86, #266, #110, #65, #220, #318, #199, #40, #72, #144, #67, #141, #149, #216, #296, #195, #68, #274, #121, #197, #242, #270, #114, #271, #219, #324, #298, #6, #95, #244, #117, #175, #297, #116, #142, #147, #171, #322 ),
 .UNSPECIFIED., .F., .F.,
 ( 4, 2, 2, 2, 2, 2, 1, 2, 2, 2, 2, 2, 2, 2, 2, 2, 2, 2, 2, 2, 2, 2, 2, 2, 4 ),
 ( 0.0006413378010540139900, 0.001197866493713557100, 0.001754395186373100500, 0.002867452571692191400, 0.003980509957011281100, 0.004537038649670826900, 0.005093567342330372600, 0.005650096034989917500, 0.006206624727649462400, 0.007319682112968555600, 0.008432739498287650600, 0.008989268190947195500, 0.009545796883606743800, 0.01065885426892584200, 0.01121538296158539400, 0.01177191165424494400, 0.01288496903956404400, 0.01344149773222359100, 0.01399802642488313800, 0.01511108381020223800, 0.01566761250286178400, 0.01622414119552133300, 0.01733719858084042200, 0.01789372727349996700, 0.01845025596615951200 ),
 .UNSPECIFIED. ) ;
#26 = EDGE_LOOP ( 'NONE', ( #62 ) ) ;
#27 = ORIENTED_EDGE ( 'NONE', *, *, #246, .F. ) ;
#28 = CARTESIAN_POINT ( 'NONE',  ( 65.92891758621347300, 2.594442916135708500, 2.729384794913850800 ) ) ;
#29 = AXIS2_PLACEMENT_3D ( 'NONE', #1, #267, #170 ) ;
#30 = CARTESIAN_POINT ( 'NONE',  ( 65.40820210618997500, 0.02579089963709087900, 4.672721422649217100 ) ) ;
#31 = DIRECTION ( 'NONE',  ( -1.000000000000000000, -0.0000000000000000000, -0.0000000000000000000 ) ) ;
#32 = VERTEX_POINT ( 'NONE', #42 ) ;
#33 = CARTESIAN_POINT ( 'NONE',  ( 64.45000000000000300, 0.0000000000000000000, 0.0000000000000000000 ) ) ;
#34 = FACE_OUTER_BOUND ( 'NONE', #126, .T. ) ;
#35 = CARTESIAN_POINT ( 'NONE',  ( 63.38528717920836900, 3.505724190265617300, 1.797035095985199500 ) ) ;
#36 = EDGE_CURVE ( 'NONE', #120, #295, #218, .T. ) ;
#37 = PLANE ( 'NONE',  #303 ) ;
#38 = DIRECTION ( 'NONE',  ( 1.000000000000000000, 0.0000000000000000000, 0.0000000000000000000 ) ) ;
#39 = CARTESIAN_POINT ( 'NONE',  ( -79.66162912480135100, 0.0000000000000000000, -5.000000000000000000 ) ) ;
#40 = CARTESIAN_POINT ( 'NONE',  ( 63.21330514999867500, -2.602755028525565600, 2.743387662029313400 ) ) ;
#41 = VECTOR ( 'NONE', #18, 1000.000000000000000 ) ;
#42 = CARTESIAN_POINT ( 'NONE',  ( 0.0000000000000000000, 0.0000000000000000000, 4.000000000000000000 ) ) ;
#43 = APPLICATION_CONTEXT ( 'automotive_design' ) ;
#44 = CARTESIAN_POINT ( 'NONE',  ( 30.68245735194570400, 0.0000000000000000000, 5.000000000000000000 ) ) ;
#45 = VERTEX_POINT ( 'NONE', #311 ) ;
#46 = DIRECTION ( 'NONE',  ( 1.000000000000000000, 0.0000000000000000000, 0.0000000000000000000 ) ) ;
#47 =( BOUNDED_CURVE ( )  B_SPLINE_CURVE ( 3, ( #118, #90, #294, #74 ),
 .UNSPECIFIED., .F., .T. ) 
 B_SPLINE_CURVE_WITH_KNOTS ( ( 4, 4 ),
 ( 5.354402609082602500, 7.211968005276570000 ),
 .UNSPECIFIED. ) 
 CURVE ( )  GEOMETRIC_REPRESENTATION_ITEM ( )  RATIONAL_B_SPLINE_CURVE ( ( 1.000000000000000000, 0.7325395683890271200, 0.7325395683890271200, 1.000000000000000000 ) ) 
 REPRESENTATION_ITEM ( '' )  );
#48 = PRESENTATION_LAYER_ASSIGNMENT (  '', '', ( #135 ) ) ;
#49 =( LENGTH_UNIT ( ) NAMED_UNIT ( * ) SI_UNIT ( .MILLI., .METRE. ) );
#50 =( NAMED_UNIT ( * ) PLANE_ANGLE_UNIT ( ) SI_UNIT ( $, .RADIAN. ) );
#51 = SURFACE_STYLE_USAGE ( .BOTH. , #183 ) ;
#52 = FACE_OUTER_BOUND ( 'NONE', #10, .T. ) ;
#53 = CYLINDRICAL_SURFACE ( 'NONE', #143, 5.000000000000000900 ) ;
#54 = SURFACE_SIDE_STYLE ('',( #288 ) ) ;
#55 =( LENGTH_UNIT ( ) NAMED_UNIT ( * ) SI_UNIT ( .MILLI., .METRE. ) );
#56 = PRESENTATION_LAYER_ASSIGNMENT (  '', '', ( #231 ) ) ;
#57 = B_SPLINE_CURVE_WITH_KNOTS ( 'NONE', 3,
 ( #217, #247, #245, #94 ),
 .UNSPECIFIED., .F., .F.,
 ( 4, 4 ),
 ( 0.001825292776887271600, 0.002640802206716960600 ),
 .UNSPECIFIED. ) ;
#58 = ORIENTED_EDGE ( 'NONE', *, *, #89, .T. ) ;
#59 = EDGE_LOOP ( 'NONE', ( #5, #174 ) ) ;
#60 = CARTESIAN_POINT ( 'NONE',  ( 63.41247222377987900, 3.605735840708065500, 1.643123601942434200 ) ) ;
#61 = DIRECTION ( 'NONE',  ( 0.7071067811865487900, -0.0000000000000000000, 0.7071067811865463500 ) ) ;
#62 = ORIENTED_EDGE ( 'NONE', *, *, #79, .T. ) ;
#63 = VECTOR ( 'NONE', #8, 1000.000000000000100 ) ;
#64 = CARTESIAN_POINT ( 'NONE',  ( 63.06237266450627700, 0.7537497278864037100, 3.537734718551141200 ) ) ;
#65 = CARTESIAN_POINT ( 'NONE',  ( 63.06855721285909100, -0.9156794295877304100, 3.505770009638075700 ) ) ;
#66 = CIRCLE ( 'NONE', #258, 5.000000000000000000 ) ;
#67 = CARTESIAN_POINT ( 'NONE',  ( 63.35654508316698500, -3.385336700070731700, 1.958035279034758800 ) ) ;
#68 = CARTESIAN_POINT ( 'NONE',  ( 63.70074035226348700, -4.254338380225003200, -0.04767094701804759600 ) ) ;
#69 = EDGE_LOOP ( 'NONE', ( #58, #130, #232 ) ) ;
#70 = AXIS2_PLACEMENT_3D ( 'NONE', #12, #248, #293 ) ;
#71 = EDGE_LOOP ( 'NONE', ( #27 ) ) ;
#72 = CARTESIAN_POINT ( 'NONE',  ( 63.25687621800543800, -2.886971495444148300, 2.508475025790930100 ) ) ;
#73 = CARTESIAN_POINT ( 'NONE',  ( 63.00000000000000000, 3.416771834534555000, 0.9634159178316308300 ) ) ;
#74 = CARTESIAN_POINT ( 'NONE',  ( 63.00000000000000000, 0.2306067067090946700, -3.542502017899323600 ) ) ;
#75 = EDGE_CURVE ( 'NONE', #156, #45, #104, .T. ) ;
#76 = CARTESIAN_POINT ( 'NONE',  ( 0.0000000000000000000, 0.0000000000000000000, 0.0000000000000000000 ) ) ;
#77 = ADVANCED_FACE ( 'NONE', ( #21, #211 ), #53, .T. ) ;
#78 = CARTESIAN_POINT ( 'NONE',  ( 1.000000000000000900, 0.0000000000000000000, 0.0000000000000000000 ) ) ;
#79 = EDGE_CURVE ( 'NONE', #263, #263, #66, .T. ) ;
#80 = AXIS2_PLACEMENT_3D ( 'NONE', #249, #328, #179 ) ;
#81 = B_SPLINE_CURVE_WITH_KNOTS ( 'NONE', 3,
 ( #280, #128, #201, #98 ),
 .UNSPECIFIED., .F., .F.,
 ( 4, 4 ),
 ( 4.199303756491654300E-007, 0.0003265901562083849100 ),
 .UNSPECIFIED. ) ;
#82 = AXIS2_PLACEMENT_3D ( 'NONE', #276, #177, #13 ) ;
#83 = EDGE_LOOP ( 'NONE', ( #287, #315, #187, #313, #136 ) ) ;
#84 = COLOUR_RGB ( '',1.000000000000000000, 1.000000000000000000, 0.5019607843137254800 ) ;
#85 = VECTOR ( 'NONE', #61, 1000.000000000000000 ) ;
#86 = CARTESIAN_POINT ( 'NONE',  ( 63.05029843355010400, 0.1944430877750656600, 3.599914285072512300 ) ) ;
#87 = COLOUR_RGB ( '',1.000000000000000000, 1.000000000000000000, 0.5019607843137254800 ) ;
#88 = CARTESIAN_POINT ( 'NONE',  ( 63.30821468127918900, 3.156561103709729600, 2.226085307680344600 ) ) ;
#89 = EDGE_CURVE ( 'NONE', #257, #254, #194, .T. ) ;
#90 = CARTESIAN_POINT ( 'NONE',  ( 59.51239858752472100, 4.192673432137028500, -1.426894932247273000 ) ) ;
#91 = EDGE_LOOP ( 'NONE', ( #198 ) ) ;
#92 = CARTESIAN_POINT ( 'NONE',  ( 31.00000000000000000, 0.0000000000000000000, 0.0000000000000000000 ) ) ;
#93 = SURFACE_STYLE_FILL_AREA ( #100 ) ;
#94 = CARTESIAN_POINT ( 'NONE',  ( 63.00000000000000000, 3.416771834534555000, 0.9634159178316308300 ) ) ;
#95 = CARTESIAN_POINT ( 'NONE',  ( 64.30979928973155800, -2.748384896075261300, -4.012255632761990900 ) ) ;
#96 = DIRECTION ( 'NONE',  ( 0.0000000000000000000, 0.0000000000000000000, -1.000000000000000000 ) ) ;
#97 = AXIS2_PLACEMENT_3D ( 'NONE', #76, #46, #326 ) ;
#98 = CARTESIAN_POINT ( 'NONE',  ( 63.15931457505077900, 0.0000000000000000000, -3.709314575050760300 ) ) ;
#99 = ADVANCED_FACE ( 'NONE', ( #168 ), #131, .T. ) ;
#100 = FILL_AREA_STYLE ('',( #14 ) ) ;
#101 = EDGE_LOOP ( 'NONE', ( #262 ) ) ;
#102 = DIRECTION ( 'NONE',  ( 1.000000000000000000, 0.0000000000000000000, 0.0000000000000000000 ) ) ;
#103 = EDGE_CURVE ( 'NONE', #257, #310, #9, .T. ) ;
#104 = LINE ( 'NONE', #161, #85 ) ;
#105 = EDGE_CURVE ( 'NONE', #310, #307, #25, .T. ) ;
#106 = AXIS2_PLACEMENT_3D ( 'NONE', #33, #264, #192 ) ;
#107 = DIRECTION ( 'NONE',  ( 0.0000000000000000000, 0.0000000000000000000, 1.000000000000000000 ) ) ;
#108 = PRODUCT_RELATED_PRODUCT_CATEGORY ( 'part', '', ( #109 ) ) ;
#109 = PRODUCT ( 'U10.B10.002.037', 'U10.B10.002.037', '', ( #157 ) ) ;
#110 = CARTESIAN_POINT ( 'NONE',  ( 63.05623180408698400, -0.5471033443644312000, 3.569386730365169000 ) ) ;
#111 = CIRCLE ( 'NONE', #158, 5.000000000000000900 ) ;
#112 = CARTESIAN_POINT ( 'NONE',  ( 65.21764681476257400, 4.974401302899165600, 5.383883451907403000 ) ) ;
#113 = CARTESIAN_POINT ( 'NONE',  ( 66.48113907580756200, -4.076595496027691100, 0.6684661387173064200 ) ) ;
#114 = CARTESIAN_POINT ( 'NONE',  ( 64.04537444175603900, -4.024487058032369700, -2.225826176271152400 ) ) ;
#115 = EDGE_LOOP ( 'NONE', ( #215 ) ) ;
#116 = CARTESIAN_POINT ( 'NONE',  ( 64.43649025117387900, -0.9246472041808646600, -4.903583293771984800 ) ) ;
#117 = CARTESIAN_POINT ( 'NONE',  ( 64.35686677683239100, -2.295653855711543100, -4.340724078679740700 ) ) ;
#118 = CARTESIAN_POINT ( 'NONE',  ( 63.00000000000000000, 3.416771834534555000, 0.9634159178316308300 ) ) ;
#119 = AXIS2_PLACEMENT_3D ( 'NONE', #92, #272, #205 ) ;
#120 = VERTEX_POINT ( 'NONE', #289 ) ;
#121 = CARTESIAN_POINT ( 'NONE',  ( 63.79060340787623300, -4.302903182402439500, -0.5992363576697944400 ) ) ;
#122 = CONICAL_SURFACE ( 'NONE', #119, 4.450000000000000200, 1.047197551196597000 ) ;
#123 = CARTESIAN_POINT ( 'NONE',  ( 63.41247222377987900, 3.605735840708065500, 1.643123601942434200 ) ) ;
#124 = ADVANCED_FACE ( 'NONE', ( #34 ), #37, .F. ) ;
#125 = AXIS2_PLACEMENT_3D ( 'NONE', #138, #31, #214 ) ;
#126 = EDGE_LOOP ( 'NONE', ( #265, #243, #188, #164, #162, #320 ) ) ;
#127 = CARTESIAN_POINT ( 'NONE',  ( 0.0000000000000000000, 0.0000000000000000000, 0.0000000000000000000 ) ) ;
#128 = CARTESIAN_POINT ( 'NONE',  ( 63.05177594413212500, 0.1537701391316181300, -3.599389389721463100 ) ) ;
#129 =( GEOMETRIC_REPRESENTATION_CONTEXT ( 3 ) GLOBAL_UNCERTAINTY_ASSIGNED_CONTEXT ( ( #252 ) ) GLOBAL_UNIT_ASSIGNED_CONTEXT ( ( #55, #230, #312 ) ) REPRESENTATION_CONTEXT ( 'NONE', 'WORKASPACE' ) );
#130 = ORIENTED_EDGE ( 'NONE', *, *, #17, .F. ) ;
#131 = CONICAL_SURFACE ( 'NONE', #106, 5.000000000000000000, 0.7853981633974460600 ) ;
#132 =( NAMED_UNIT ( * ) SI_UNIT ( $, .STERADIAN. ) SOLID_ANGLE_UNIT ( ) );
#133 = FACE_OUTER_BOUND ( 'NONE', #332, .T. ) ;
#134 = FILL_AREA_STYLE ('',( #23 ) ) ;
#135 = STYLED_ITEM ( 'NONE', ( #229 ), #302 ) ;
#136 = ORIENTED_EDGE ( 'NONE', *, *, #290, .T. ) ;
#137 = PRESENTATION_STYLE_ASSIGNMENT (( #207 ) ) ;
#138 = CARTESIAN_POINT ( 'NONE',  ( 63.00000000000000000, 0.0000000000000000000, 0.0000000000000000000 ) ) ;
#139 = CARTESIAN_POINT ( 'NONE',  ( 65.92891758621347300, 2.594442916135708500, 2.729384794913850800 ) ) ;
#140 = CARTESIAN_POINT ( 'NONE',  ( -79.66162912480135100, 0.0000000000000000000, 0.0000000000000000000 ) ) ;
#141 = CARTESIAN_POINT ( 'NONE',  ( 63.40986673067276800, -3.600505463881575400, 1.658377872869280800 ) ) ;
#142 = CARTESIAN_POINT ( 'NONE',  ( 64.44158958693596200, -0.7398254455541359900, -4.939957991050935200 ) ) ;
#143 = AXIS2_PLACEMENT_3D ( 'NONE', #140, #189, #167 ) ;
#144 = CARTESIAN_POINT ( 'NONE',  ( 63.33050325666008000, -3.266510695604494300, 2.102831331390606600 ) ) ;
#145 = ORIENTED_EDGE ( 'NONE', *, *, #3, .T. ) ;
#146 = EDGE_LOOP ( 'NONE', ( #273 ) ) ;
#147 = CARTESIAN_POINT ( 'NONE',  ( 64.44832006762047200, -0.3710732922458484000, -4.987992396645086800 ) ) ;
#148 = PRODUCT_DEFINITION ( 'UNKNOWN', '', #209, #224 ) ;
#149 = CARTESIAN_POINT ( 'NONE',  ( 63.43730769571607900, -3.697782550763500300, 1.502640396100274300 ) ) ;
#150 = EDGE_CURVE ( 'NONE', #257, #45, #334, .T. ) ;
#151 = DIRECTION ( 'NONE',  ( -1.000000000000000000, -0.0000000000000000000, -0.0000000000000000000 ) ) ;
#152 = FACE_OUTER_BOUND ( 'NONE', #115, .T. ) ;
#153 = CARTESIAN_POINT ( 'NONE',  ( 64.45000000000006000, -1.263005752304101000E-023, -5.000000000000052400 ) ) ;
#154 = CARTESIAN_POINT ( 'NONE',  ( 63.00000000000000000, 0.0000000000000000000, -0.6998826480553914700 ) ) ;
#155 = PLANE ( 'NONE',  #82 ) ;
#156 = VERTEX_POINT ( 'NONE', #196 ) ;
#157 = PRODUCT_CONTEXT ( 'NONE', #43, 'mechanical' ) ;
#158 = AXIS2_PLACEMENT_3D ( 'NONE', #78, #203, #331 ) ;
#159 = ADVANCED_FACE ( 'NONE', ( #152, #323 ), #316, .T. ) ;
#160 = APPLICATION_PROTOCOL_DEFINITION ( 'draft international standard', 'automotive_design', 1998, #282 ) ;
#161 = CARTESIAN_POINT ( 'NONE',  ( 30.93431457505064900, 0.0000000000000000000, -35.93431457505076300 ) ) ;
#162 = ORIENTED_EDGE ( 'NONE', *, *, #186, .F. ) ;
#163 = VERTEX_POINT ( 'NONE', #308 ) ;
#164 = ORIENTED_EDGE ( 'NONE', *, *, #325, .F. ) ;
#165 = CARTESIAN_POINT ( 'NONE',  ( 30.68245735194570400, 0.0000000000000000000, 0.0000000000000000000 ) ) ;
#166 = CARTESIAN_POINT ( 'NONE',  ( 63.35896770148350000, 3.395970151698615200, 1.944460977160067800 ) ) ;
#167 = DIRECTION ( 'NONE',  ( 0.0000000000000000000, 0.0000000000000000000, 1.000000000000000000 ) ) ;
#168 = FACE_OUTER_BOUND ( 'NONE', #83, .T. ) ;
#169 = EDGE_CURVE ( 'NONE', #307, #254, #2, .T. ) ;
#170 = DIRECTION ( 'NONE',  ( 0.0000000000000000000, 0.0000000000000000000, 1.000000000000000000 ) ) ;
#171 = CARTESIAN_POINT ( 'NONE',  ( 64.45000000000008800, -0.1859234446922507200, -5.000000000000054200 ) ) ;
#172 = ORIENTED_EDGE ( 'NONE', *, *, #169, .T. ) ;
#173 = CARTESIAN_POINT ( 'NONE',  ( 16.50474071877498600, 20.40649904680936500, -21.50474071877505400 ) ) ;
#174 = ORIENTED_EDGE ( 'NONE', *, *, #186, .T. ) ;
#175 = CARTESIAN_POINT ( 'NONE',  ( 64.39633939086418500, -1.810168519534575400, -4.618208055952933900 ) ) ;
#176 = DIRECTION ( 'NONE',  ( 0.0000000000000000000, -0.5773502691896272900, -0.8164965809277248100 ) ) ;
#177 = DIRECTION ( 'NONE',  ( 0.0000000000000000000, -1.000000000000000000, 0.0000000000000000000 ) ) ;
#178 = ORIENTED_EDGE ( 'NONE', *, *, #75, .T. ) ;
#179 = DIRECTION ( 'NONE',  ( -0.2588190451025144100, 0.0000000000000000000, 0.9659258262890699800 ) ) ;
#180 = EDGE_LOOP ( 'NONE', ( #145 ) ) ;
#181 = ORIENTED_EDGE ( 'NONE', *, *, #79, .F. ) ;
#182 = EDGE_CURVE ( 'NONE', #310, #295, #57, .T. ) ;
#183 = SURFACE_SIDE_STYLE ('',( #93 ) ) ;
#184 = LINE ( 'NONE', #221, #41 ) ;
#185 = CARTESIAN_POINT ( 'NONE',  ( 73.25064852463231100, 0.0000000000000000000, -24.59568706661495300 ) ) ;
#186 = EDGE_CURVE ( 'NONE', #295, #120, #47, .T. ) ;
#187 = ORIENTED_EDGE ( 'NONE', *, *, #36, .F. ) ;
#188 = ORIENTED_EDGE ( 'NONE', *, *, #75, .F. ) ;
#189 = DIRECTION ( 'NONE',  ( -1.000000000000000000, -0.0000000000000000000, -0.0000000000000000000 ) ) ;
#190 = CARTESIAN_POINT ( 'NONE',  ( 63.28366933674988100, 3.026055615737220300, 2.360877548430299700 ) ) ;
#191 = CARTESIAN_POINT ( 'NONE',  ( 68.00000000000000000, -3.220951789543002400, -5.000000000000052400 ) ) ;
#192 = DIRECTION ( 'NONE',  ( 0.0000000000000000000, 0.0000000000000000000, -1.000000000000000000 ) ) ;
#193 = ORIENTED_EDGE ( 'NONE', *, *, #17, .T. ) ;
#194 =( BOUNDED_CURVE ( )  B_SPLINE_CURVE ( 3, ( #139, #30, #240, #113, #292, #191, #234 ),
 .UNSPECIFIED., .F., .T. ) 
 B_SPLINE_CURVE_WITH_KNOTS ( ( 4, 3, 4 ),
 ( 2.493907026522450600, 4.388546166851018200, 6.283185307179586200 ),
 .UNSPECIFIED. ) 
 CURVE ( )  GEOMETRIC_REPRESENTATION_ITEM ( )  RATIONAL_B_SPLINE_CURVE ( ( 1.000000000000000000, 0.7225742002878409200, 0.7225742002878409200, 1.000000000000000000, 0.7225742002878409200, 0.7225742002878409200, 1.000000000000000000 ) ) 
 REPRESENTATION_ITEM ( '' )  );
#195 = CARTESIAN_POINT ( 'NONE',  ( 63.67093059464942700, -4.222718927934616700, 0.1327392174729398200 ) ) ;
#196 = CARTESIAN_POINT ( 'NONE',  ( 63.15931457505077900, 0.0000000000000000000, -3.709314575050760300 ) ) ;
#197 = CARTESIAN_POINT ( 'NONE',  ( 63.87930237333984700, -4.292085877203747100, -1.153085685127303900 ) ) ;
#198 = ORIENTED_EDGE ( 'NONE', *, *, #3, .F. ) ;
#199 = CARTESIAN_POINT ( 'NONE',  ( 63.13871357816544400, -1.970263875167979500, 3.140495514187747100 ) ) ;
#200 = MECHANICAL_DESIGN_GEOMETRIC_PRESENTATION_REPRESENTATION (  '', ( #135 ), #235 ) ;
#201 = CARTESIAN_POINT ( 'NONE',  ( 63.10495287074366600, 0.07687905950481438400, -3.654952870743660900 ) ) ;
#202 = AXIS2_PLACEMENT_3D ( 'NONE', #286, #335, #259 ) ;
#203 = DIRECTION ( 'NONE',  ( -1.000000000000000000, -0.0000000000000000000, -0.0000000000000000000 ) ) ;
#204 = ADVANCED_FACE ( 'NONE', ( #133, #283 ), #122, .T. ) ;
#205 = DIRECTION ( 'NONE',  ( 0.0000000000000000000, 0.0000000000000000000, 1.000000000000000000 ) ) ;
#206 = ORIENTED_EDGE ( 'NONE', *, *, #169, .F. ) ;
#207 = SURFACE_STYLE_USAGE ( .BOTH. , #54 ) ;
#208 = CIRCLE ( 'NONE', #202, 4.450000000000000200 ) ;
#209 = PRODUCT_DEFINITION_FORMATION_WITH_SPECIFIED_SOURCE ( 'ANY', '', #109, .NOT_KNOWN. ) ;
#210 = CARTESIAN_POINT ( 'NONE',  ( 64.21655037820373500, 3.333457639625605000, 2.062142231656912500 ) ) ;
#211 = FACE_OUTER_BOUND ( 'NONE', #26, .T. ) ;
#212 = CARTESIAN_POINT ( 'NONE',  ( 63.17559219106813400, 2.312190414229759600, 2.944923282160468100 ) ) ;
#213 = MECHANICAL_DESIGN_GEOMETRIC_PRESENTATION_REPRESENTATION (  '', ( #231 ), #129 ) ;
#214 = DIRECTION ( 'NONE',  ( 0.0000000000000000000, 0.0000000000000000000, 1.000000000000000000 ) ) ;
#215 = ORIENTED_EDGE ( 'NONE', *, *, #268, .F. ) ;
#216 = CARTESIAN_POINT ( 'NONE',  ( 63.52178952090935100, -3.959150824246354000, 1.017939007546178100 ) ) ;
#217 = CARTESIAN_POINT ( 'NONE',  ( 63.41247222377987900, 3.605735840708065500, 1.643123601942434200 ) ) ;
#218 = CIRCLE ( 'NONE', #29, 3.549999999999999800 ) ;
#219 = CARTESIAN_POINT ( 'NONE',  ( 64.12131920489611000, -3.795913220854908700, -2.728665348703081900 ) ) ;
#220 = CARTESIAN_POINT ( 'NONE',  ( 63.07710977464489600, -1.099091473977899600, 3.461552355379211600 ) ) ;
#221 = CARTESIAN_POINT ( 'NONE',  ( 59.44999999999998200, 0.0000000000000000000, 0.0000000000000000000 ) ) ;
#222 = CARTESIAN_POINT ( 'NONE',  ( 65.92891758621347300, 2.594442916135708500, 2.729384794913850800 ) ) ;
#223 = FACE_OUTER_BOUND ( 'NONE', #69, .T. ) ;
#224 = PRODUCT_DEFINITION_CONTEXT ( 'detailed design', #282, 'design' ) ;
#225 = UNCERTAINTY_MEASURE_WITH_UNIT (LENGTH_MEASURE( 1.000000000000000100E-005 ), #301, 'distance_accuracy_value', 'NONE');
#226 = ORIENTED_EDGE ( 'NONE', *, *, #290, .F. ) ;
#227 = FACE_OUTER_BOUND ( 'NONE', #101, .T. ) ;
#228 = ORIENTED_EDGE ( 'NONE', *, *, #105, .T. ) ;
#229 = PRESENTATION_STYLE_ASSIGNMENT (( #51 ) ) ;
#230 =( NAMED_UNIT ( * ) PLANE_ANGLE_UNIT ( ) SI_UNIT ( $, .RADIAN. ) );
#231 = STYLED_ITEM ( 'NONE', ( #137 ), #22 ) ;
#232 = ORIENTED_EDGE ( 'NONE', *, *, #150, .F. ) ;
#233 = FACE_OUTER_BOUND ( 'NONE', #19, .T. ) ;
#234 = CARTESIAN_POINT ( 'NONE',  ( 68.00000000000000000, 0.0000000000000000000, -5.000000000000082600 ) ) ;
#235 =( GEOMETRIC_REPRESENTATION_CONTEXT ( 3 ) GLOBAL_UNCERTAINTY_ASSIGNED_CONTEXT ( ( #285 ) ) GLOBAL_UNIT_ASSIGNED_CONTEXT ( ( #49, #50, #132 ) ) REPRESENTATION_CONTEXT ( 'NONE', 'WORKASPACE' ) );
#236 = DIRECTION ( 'NONE',  ( -1.000000000000000000, -0.0000000000000000000, -0.0000000000000000000 ) ) ;
#237 = AXIS2_PLACEMENT_3D ( 'NONE', #127, #151, #16 ) ;
#238 = CARTESIAN_POINT ( 'NONE',  ( 63.05674091590877600, 0.5674174345815005100, 3.566743564240757900 ) ) ;
#239 = ORIENTED_EDGE ( 'NONE', *, *, #89, .F. ) ;
#240 = CARTESIAN_POINT ( 'NONE',  ( 65.66294941074551200, -3.051650102041792800, 3.721991538956733500 ) ) ;
#241 =( GEOMETRIC_REPRESENTATION_CONTEXT ( 3 ) GLOBAL_UNCERTAINTY_ASSIGNED_CONTEXT ( ( #225 ) ) GLOBAL_UNIT_ASSIGNED_CONTEXT ( ( #301, #327, #304 ) ) REPRESENTATION_CONTEXT ( 'NONE', 'WORKASPACE' ) );
#242 = CARTESIAN_POINT ( 'NONE',  ( 63.93618029583937800, -4.238194634370517000, -1.515704633120151800 ) ) ;
#243 = ORIENTED_EDGE ( 'NONE', *, *, #150, .T. ) ;
#244 = CARTESIAN_POINT ( 'NONE',  ( 64.34201252698081000, -2.452859371920794300, -4.236677132948321000 ) ) ;
#245 = CARTESIAN_POINT ( 'NONE',  ( 63.13016465498350300, 3.487218450061305000, 1.193207131916347100 ) ) ;
#246 = EDGE_CURVE ( 'NONE', #309, #309, #111, .T. ) ;
#247 = CARTESIAN_POINT ( 'NONE',  ( 63.26844778088005900, 3.549399733429241500, 1.419427872077596400 ) ) ;
#248 = DIRECTION ( 'NONE',  ( -1.000000000000000000, -0.0000000000000000000, -0.0000000000000000000 ) ) ;
#249 = CARTESIAN_POINT ( 'NONE',  ( 64.65741368663682900, -5.000000000000000900, 7.474701950155967700 ) ) ;
#250 = PLANE ( 'NONE',  #97 ) ;
#251 = ADVANCED_FACE ( 'NONE', ( #223 ), #278, .F. ) ;
#252 = UNCERTAINTY_MEASURE_WITH_UNIT (LENGTH_MEASURE( 1.000000000000000100E-005 ), #55, 'distance_accuracy_value', 'NONE');
#253 = CLOSED_SHELL ( 'NONE', ( #99, #124, #305, #159, #77, #204, #24, #336, #330, #251 ) ) ;
#254 = VERTEX_POINT ( 'NONE', #255 ) ;
#255 = CARTESIAN_POINT ( 'NONE',  ( 68.00000000000000000, 0.0000000000000000000, -5.000000000000082600 ) ) ;
#256 = ORIENTED_EDGE ( 'NONE', *, *, #103, .T. ) ;
#257 = VERTEX_POINT ( 'NONE', #222 ) ;
#258 = AXIS2_PLACEMENT_3D ( 'NONE', #165, #236, #107 ) ;
#259 = DIRECTION ( 'NONE',  ( 0.0000000000000000000, 0.0000000000000000000, 1.000000000000000000 ) ) ;
#260 = CIRCLE ( 'NONE', #237, 4.000000000000000000 ) ;
#261 = CARTESIAN_POINT ( 'NONE',  ( 65.06383993577635700, 2.992954345801416100, 2.427887413070664000 ) ) ;
#262 = ORIENTED_EDGE ( 'NONE', *, *, #268, .T. ) ;
#263 = VERTEX_POINT ( 'NONE', #44 ) ;
#264 = DIRECTION ( 'NONE',  ( 1.000000000000000000, 0.0000000000000000000, 0.0000000000000000000 ) ) ;
#265 = ORIENTED_EDGE ( 'NONE', *, *, #103, .F. ) ;
#266 = CARTESIAN_POINT ( 'NONE',  ( 63.04861899968777500, -0.1774158788108697900, 3.608540822911286700 ) ) ;
#267 = DIRECTION ( 'NONE',  ( -1.000000000000000000, -0.0000000000000000000, -0.0000000000000000000 ) ) ;
#268 = EDGE_CURVE ( 'NONE', #32, #32, #260, .T. ) ;
#269 = CARTESIAN_POINT ( 'NONE',  ( 63.08580988484756300, 1.297878757240064300, 3.416504287381406900 ) ) ;
#270 = CARTESIAN_POINT ( 'NONE',  ( 64.01846705755070800, -4.086988181837143400, -2.049604600690716300 ) ) ;
#271 = CARTESIAN_POINT ( 'NONE',  ( 64.09669709869182000, -3.879110595182479100, -2.564688461516039900 ) ) ;
#272 = DIRECTION ( 'NONE',  ( -1.000000000000000000, -0.0000000000000000000, -0.0000000000000000000 ) ) ;
#273 = ORIENTED_EDGE ( 'NONE', *, *, #246, .T. ) ;
#274 = CARTESIAN_POINT ( 'NONE',  ( 63.76046926137013300, -4.294468999170058000, -0.4129834120981704700 ) ) ;
#275 = CARTESIAN_POINT ( 'NONE',  ( 1.000000000000000900, 0.0000000000000000000, 5.000000000000000900 ) ) ;
#276 = CARTESIAN_POINT ( 'NONE',  ( 30.93431457505064900, 0.0000000000000000000, -35.93431457505076300 ) ) ;
#277 = APPLICATION_PROTOCOL_DEFINITION ( 'draft international standard', 'automotive_design', 1998, #43 ) ;
#278 = PLANE ( 'NONE',  #80 ) ;
#279 = AXIS2_PLACEMENT_3D ( 'NONE', #154, #306, #96 ) ;
#280 = CARTESIAN_POINT ( 'NONE',  ( 63.00000000000000000, 0.2306067067090946700, -3.542502017899323600 ) ) ;
#281 = LINE ( 'NONE', #185, #319 ) ;
#282 = APPLICATION_CONTEXT ( 'automotive_design' ) ;
#283 = FACE_BOUND ( 'NONE', #180, .T. ) ;
#284 = DIRECTION ( 'NONE',  ( 0.2588190451025144100, 0.0000000000000000000, -0.9659258262890699800 ) ) ;
#285 = UNCERTAINTY_MEASURE_WITH_UNIT (LENGTH_MEASURE( 1.000000000000000100E-005 ), #49, 'distance_accuracy_value', 'NONE');
#286 = CARTESIAN_POINT ( 'NONE',  ( 31.00000000000000000, 0.0000000000000000000, 0.0000000000000000000 ) ) ;
#287 = ORIENTED_EDGE ( 'NONE', *, *, #105, .F. ) ;
#288 = SURFACE_STYLE_FILL_AREA ( #134 ) ;
#289 = CARTESIAN_POINT ( 'NONE',  ( 63.00000000000000000, 0.2306067067090946700, -3.542502017899323600 ) ) ;
#290 = EDGE_CURVE ( 'NONE', #156, #307, #184, .T. ) ;
#291 = CARTESIAN_POINT ( 'NONE',  ( 63.41247222377987900, 3.605735840708065500, 1.643123601942434200 ) ) ;
#292 = CARTESIAN_POINT ( 'NONE',  ( 67.29932874086962600, -5.101540890013589000, -2.385059261522120900 ) ) ;
#293 = DIRECTION ( 'NONE',  ( 0.0000000000000000000, 0.0000000000000000000, 1.000000000000000000 ) ) ;
#294 = CARTESIAN_POINT ( 'NONE',  ( 59.51239858752472100, 2.742847254222684900, -3.477258776137278400 ) ) ;
#295 = VERTEX_POINT ( 'NONE', #73 ) ;
#296 = CARTESIAN_POINT ( 'NONE',  ( 63.58166784166518000, -4.093445414735746200, 0.6672801718979766200 ) ) ;
#297 = CARTESIAN_POINT ( 'NONE',  ( 64.41619100108526700, -1.467510629380982300, -4.759152424155217000 ) ) ;
#298 = CARTESIAN_POINT ( 'NONE',  ( 64.23590499894416400, -3.282421216992868800, -3.502227892803216700 ) ) ;
#299 = CARTESIAN_POINT ( 'NONE',  ( 0.0000000000000000000, 0.0000000000000000000, 0.0000000000000000000 ) ) ;
#300 = CONICAL_SURFACE ( 'NONE', #125, 3.549999999999999800, 0.02811758774612291300 ) ;
#301 =( LENGTH_UNIT ( ) NAMED_UNIT ( * ) SI_UNIT ( .MILLI., .METRE. ) );
#302 = ADVANCED_BREP_SHAPE_REPRESENTATION ( 'U10.B10.002.037', ( #22, #20 ), #241 ) ;
#303 = AXIS2_PLACEMENT_3D ( 'NONE', #173, #321, #176 ) ;
#304 =( NAMED_UNIT ( * ) SI_UNIT ( $, .STERADIAN. ) SOLID_ANGLE_UNIT ( ) );
#305 = ADVANCED_FACE ( 'NONE', ( #227 ), #250, .F. ) ;
#306 = DIRECTION ( 'NONE',  ( 1.000000000000000000, -0.0000000000000000000, -0.0000000000000000000 ) ) ;
#307 = VERTEX_POINT ( 'NONE', #153 ) ;
#308 = CARTESIAN_POINT ( 'NONE',  ( 31.00000000000000000, 0.0000000000000000000, 4.450000000000000200 ) ) ;
#309 = VERTEX_POINT ( 'NONE', #275 ) ;
#310 = VERTEX_POINT ( 'NONE', #123 ) ;
#311 = CARTESIAN_POINT ( 'NONE',  ( 66.70428888039592200, 0.0000000000000000000, -0.1643402697056213500 ) ) ;
#312 =( NAMED_UNIT ( * ) SI_UNIT ( $, .STERADIAN. ) SOLID_ANGLE_UNIT ( ) );
#313 = ORIENTED_EDGE ( 'NONE', *, *, #325, .T. ) ;
#314 = SHAPE_DEFINITION_REPRESENTATION ( #7, #302 ) ;
#315 = ORIENTED_EDGE ( 'NONE', *, *, #182, .T. ) ;
#316 = TOROIDAL_SURFACE ( 'NONE', #70, 4.000000000000000000, 1.000000000000000400 ) ;
#317 = CARTESIAN_POINT ( 'NONE',  ( 63.21515858762488400, 2.614777797004208100, 2.733915777960717700 ) ) ;
#318 = CARTESIAN_POINT ( 'NONE',  ( 63.10895157853791900, -1.631460017345016900, 3.296050774093255000 ) ) ;
#319 = VECTOR ( 'NONE', #284, 1000.000000000000100 ) ;
#320 = ORIENTED_EDGE ( 'NONE', *, *, #182, .F. ) ;
#321 = DIRECTION ( 'NONE',  ( -0.4999999999999998900, -0.7071067811865465700, 0.5000000000000014400 ) ) ;
#322 = CARTESIAN_POINT ( 'NONE',  ( 64.45000000000006000, -1.263005752304101000E-023, -5.000000000000052400 ) ) ;
#323 = FACE_OUTER_BOUND ( 'NONE', #146, .T. ) ;
#324 = CARTESIAN_POINT ( 'NONE',  ( 64.19221922555495000, -3.514917879417423000, -3.204276843524370900 ) ) ;
#325 = EDGE_CURVE ( 'NONE', #120, #156, #81, .T. ) ;
#326 = DIRECTION ( 'NONE',  ( 0.0000000000000000000, 0.0000000000000000000, -1.000000000000000000 ) ) ;
#327 =( NAMED_UNIT ( * ) PLANE_ANGLE_UNIT ( ) SI_UNIT ( $, .RADIAN. ) );
#328 = DIRECTION ( 'NONE',  ( -0.9659258262890699800, 0.0000000000000000000, -0.2588190451025144100 ) ) ;
#329 = VECTOR ( 'NONE', #38, 1000.000000000000000 ) ;
#330 = ADVANCED_FACE ( 'NONE', ( #233 ), #11, .T. ) ;
#331 = DIRECTION ( 'NONE',  ( 0.0000000000000000000, 0.0000000000000000000, 1.000000000000000000 ) ) ;
#332 = EDGE_LOOP ( 'NONE', ( #181 ) ) ;
#333 = DIRECTION ( 'NONE',  ( 0.0000000000000000000, 0.0000000000000000000, 1.000000000000000000 ) ) ;
#334 = LINE ( 'NONE', #112, #63 ) ;
#335 = DIRECTION ( 'NONE',  ( -1.000000000000000000, -0.0000000000000000000, -0.0000000000000000000 ) ) ;
#336 = ADVANCED_FACE ( 'NONE', ( #52 ), #155, .F. ) ;
#337 = FACE_OUTER_BOUND ( 'NONE', #91, .T. ) ;
ENDSEC;
END-ISO-10303-21;
