ISO-10303-21;
HEADER;
FILE_DESCRIPTION (( 'STEP AP214' ),
    '1' );
FILE_NAME ('U10.B10.001.037.STEP',
    '2020-10-01T11:34:59',
    ( '' ),
    ( '' ),
    'SwSTEP 2.0',
    'SolidWorks 2017',
    '' );
FILE_SCHEMA (( 'AUTOMOTIVE_DESIGN' ));
ENDSEC;

DATA;
#1 = EDGE_CURVE ( 'NONE', #325, #250, #326, .T. ) ;
#2 = ORIENTED_EDGE ( 'NONE', *, *, #108, .T. ) ;
#3 = FACE_OUTER_BOUND ( 'NONE', #105, .T. ) ;
#4 = CARTESIAN_POINT ( 'NONE',  ( 63.52178952090935100, -3.959150824246354000, 1.017939007546178100 ) ) ;
#5 = CARTESIAN_POINT ( 'NONE',  ( 63.21515858762488400, 2.614777797004208100, 2.733915777960717700 ) ) ;
#6 = B_SPLINE_CURVE_WITH_KNOTS ( 'NONE', 3,
 ( #209, #133, #318, #315 ),
 .UNSPECIFIED., .F., .F.,
 ( 4, 4 ),
 ( 4.199303756491654300E-007, 0.0003265901562083849100 ),
 .UNSPECIFIED. ) ;
#7 = DIRECTION ( 'NONE',  ( -1.000000000000000000, -0.0000000000000000000, -0.0000000000000000000 ) ) ;
#8 = ORIENTED_EDGE ( 'NONE', *, *, #264, .T. ) ;
#9 = DIRECTION ( 'NONE',  ( 0.1956488079738465900, -0.6546536707079769800, -0.7301712917987014400 ) ) ;
#10 = CARTESIAN_POINT ( 'NONE',  ( 64.09669709869182000, -3.879110595182479100, -2.564688461516039900 ) ) ;
#11 = DIRECTION ( 'NONE',  ( 0.2588190451025144100, 0.0000000000000000000, -0.9659258262890699800 ) ) ;
#12 = EDGE_LOOP ( 'NONE', ( #154 ) ) ;
#13 = AXIS2_PLACEMENT_3D ( 'NONE', #270, #33, #114 ) ;
#14 = CARTESIAN_POINT ( 'NONE',  ( 63.00000000000000000, 0.0000000000000000000, -0.6998826480553914700 ) ) ;
#15 = CYLINDRICAL_SURFACE ( 'NONE', #222, 5.000000000000000900 ) ;
#16 = DIRECTION ( 'NONE',  ( -1.000000000000000000, -0.0000000000000000000, -0.0000000000000000000 ) ) ;
#17 = DIRECTION ( 'NONE',  ( -1.000000000000000000, -0.0000000000000000000, -0.0000000000000000000 ) ) ;
#18 = ADVANCED_FACE ( 'NONE', ( #110 ), #78, .F. ) ;
#19 = ORIENTED_EDGE ( 'NONE', *, *, #194, .T. ) ;
#20 = EDGE_LOOP ( 'NONE', ( #285, #173, #2, #322 ) ) ;
#21 =( NAMED_UNIT ( * ) SI_UNIT ( $, .STERADIAN. ) SOLID_ANGLE_UNIT ( ) );
#22 = PRESENTATION_STYLE_ASSIGNMENT (( #310 ) ) ;
#23 = EDGE_LOOP ( 'NONE', ( #137, #271, #255, #280, #241 ) ) ;
#24 = ORIENTED_EDGE ( 'NONE', *, *, #316, .F. ) ;
#25 = CARTESIAN_POINT ( 'NONE',  ( 63.08580988484756300, 1.297878757240064300, 3.416504287381406900 ) ) ;
#26 = DIRECTION ( 'NONE',  ( -1.000000000000000000, -0.0000000000000000000, -0.0000000000000000000 ) ) ;
#27 = CARTESIAN_POINT ( 'NONE',  ( 0.0000000000000000000, 0.0000000000000000000, 0.0000000000000000000 ) ) ;
#28 = AXIS2_PLACEMENT_3D ( 'NONE', #27, #232, #159 ) ;
#29 = VERTEX_POINT ( 'NONE', #306 ) ;
#30 = CARTESIAN_POINT ( 'NONE',  ( 63.79060340787623300, -4.302903182402439500, -0.5992363576697944400 ) ) ;
#31 = PLANE ( 'NONE',  #269 ) ;
#32 = PRODUCT_DEFINITION_FORMATION_WITH_SPECIFIED_SOURCE ( 'ANY', '', #337, .NOT_KNOWN. ) ;
#33 = DIRECTION ( 'NONE',  ( -1.000000000000000000, -0.0000000000000000000, -0.0000000000000000000 ) ) ;
#34 = EDGE_LOOP ( 'NONE', ( #231, #41 ) ) ;
#35 = EDGE_LOOP ( 'NONE', ( #90, #307, #215, #50, #187, #165 ) ) ;
#36 =( BOUNDED_CURVE ( )  B_SPLINE_CURVE ( 3, ( #244, #189, #61, #37 ),
 .UNSPECIFIED., .F., .T. ) 
 B_SPLINE_CURVE_WITH_KNOTS ( ( 4, 4 ),
 ( 1.603002245191851300, 1.949878510078825600 ),
 .UNSPECIFIED. ) 
 CURVE ( )  GEOMETRIC_REPRESENTATION_ITEM ( )  RATIONAL_B_SPLINE_CURVE ( ( 1.000000000000000000, 0.9899981810401259400, 0.9899981810401259400, 1.000000000000000000 ) ) 
 REPRESENTATION_ITEM ( '' )  );
#37 = CARTESIAN_POINT ( 'NONE',  ( 63.41247222377987900, 3.605735840708065500, 1.643123601942434200 ) ) ;
#38 = CARTESIAN_POINT ( 'NONE',  ( 64.29235117793950800, -2.887955196604473400, -3.891250488325192200 ) ) ;
#39 = EDGE_CURVE ( 'NONE', #181, #126, #309, .T. ) ;
#40 = CARTESIAN_POINT ( 'NONE',  ( 63.87930237333984700, -4.292085877203747100, -1.153085685127303900 ) ) ;
#41 = ORIENTED_EDGE ( 'NONE', *, *, #39, .T. ) ;
#42 = AXIS2_PLACEMENT_3D ( 'NONE', #331, #17, #199 ) ;
#43 = CARTESIAN_POINT ( 'NONE',  ( 67.29932874086962600, -5.101540890013589000, -2.385059261522120900 ) ) ;
#44 = AXIS2_PLACEMENT_3D ( 'NONE', #183, #291, #161 ) ;
#45 = CARTESIAN_POINT ( 'NONE',  ( 30.68245735194570400, 0.0000000000000000000, 0.0000000000000000000 ) ) ;
#46 = ADVANCED_FACE ( 'NONE', ( #281, #200 ), #64, .T. ) ;
#47 = PRODUCT_DEFINITION_CONTEXT ( 'detailed design', #335, 'design' ) ;
#48 = PRODUCT_CONTEXT ( 'NONE', #101, 'mechanical' ) ;
#49 = AXIS2_PLACEMENT_3D ( 'NONE', #65, #212, #245 ) ;
#50 = ORIENTED_EDGE ( 'NONE', *, *, #60, .F. ) ;
#51 = B_SPLINE_CURVE_WITH_KNOTS ( 'NONE', 3,
 ( #58, #131, #180, #288, #83, #5, #81, #266, #25, #85, #233, #109, #267, #112, #205, #56, #237, #185, #82, #262, #52, #111, #158, #287, #4, #265, #290, #134, #317, #30, #40, #162, #214, #190, #10, #268, #299, #87, #38, #295, #141, #327, #89, #119, #274, #300, #216, #213, #188 ),
 .UNSPECIFIED., .F., .F.,
 ( 4, 2, 2, 2, 2, 2, 1, 2, 2, 2, 2, 2, 2, 2, 2, 2, 2, 2, 2, 2, 2, 2, 2, 2, 4 ),
 ( 0.0006413378010540139900, 0.001197866493713557100, 0.001754395186373100500, 0.002867452571692191400, 0.003980509957011281100, 0.004537038649670826900, 0.005093567342330372600, 0.005650096034989917500, 0.006206624727649462400, 0.007319682112968555600, 0.008432739498287650600, 0.008989268190947195500, 0.009545796883606743800, 0.01065885426892584200, 0.01121538296158539400, 0.01177191165424494400, 0.01288496903956404400, 0.01344149773222359100, 0.01399802642488313800, 0.01511108381020223800, 0.01566761250286178400, 0.01622414119552133300, 0.01733719858084042200, 0.01789372727349996700, 0.01845025596615951200 ),
 .UNSPECIFIED. ) ;
#52 = CARTESIAN_POINT ( 'NONE',  ( 63.33050325666008000, -3.266510695604494300, 2.102831331390606600 ) ) ;
#53 = EDGE_CURVE ( 'NONE', #261, #261, #221, .T. ) ;
#54 = DIRECTION ( 'NONE',  ( 0.0000000000000000000, -0.5773502691896272900, -0.8164965809277248100 ) ) ;
#55 = FACE_OUTER_BOUND ( 'NONE', #319, .T. ) ;
#56 = CARTESIAN_POINT ( 'NONE',  ( 63.07710977464489600, -1.099091473977899600, 3.461552355379211600 ) ) ;
#57 = DIRECTION ( 'NONE',  ( 0.0000000000000000000, 0.0000000000000000000, 1.000000000000000000 ) ) ;
#58 = CARTESIAN_POINT ( 'NONE',  ( 63.41247222377987900, 3.605735840708065500, 1.643123601942434200 ) ) ;
#59 = CYLINDRICAL_SURFACE ( 'NONE', #289, 4.300117351944661200 ) ;
#60 = EDGE_CURVE ( 'NONE', #126, #72, #6, .T. ) ;
#61 = CARTESIAN_POINT ( 'NONE',  ( 64.21655037820373500, 3.333457639625605000, 2.062142231656912500 ) ) ;
#62 = DIRECTION ( 'NONE',  ( 0.0000000000000000000, -1.000000000000000000, 0.0000000000000000000 ) ) ;
#63 = SURFACE_STYLE_FILL_AREA ( #75 ) ;
#64 = TOROIDAL_SURFACE ( 'NONE', #336, 4.000000000000000000, 1.000000000000000400 ) ;
#65 = CARTESIAN_POINT ( 'NONE',  ( 31.00000000000000000, 0.0000000000000000000, 0.0000000000000000000 ) ) ;
#66 = CARTESIAN_POINT ( 'NONE',  ( 0.0000000000000000000, 0.0000000000000000000, 4.000000000000000000 ) ) ;
#67 = DIRECTION ( 'NONE',  ( 0.0000000000000000000, 0.0000000000000000000, -1.000000000000000000 ) ) ;
#68 = PRESENTATION_STYLE_ASSIGNMENT (( #142 ) ) ;
#69 = DIRECTION ( 'NONE',  ( 0.0000000000000000000, 0.0000000000000000000, -1.000000000000000000 ) ) ;
#70 =( NAMED_UNIT ( * ) PLANE_ANGLE_UNIT ( ) SI_UNIT ( $, .RADIAN. ) );
#71 = ADVANCED_FACE ( 'NONE', ( #152, #334 ), #184, .T. ) ;
#72 = VERTEX_POINT ( 'NONE', #208 ) ;
#73 = FACE_OUTER_BOUND ( 'NONE', #35, .T. ) ;
#74 = STYLED_ITEM ( 'NONE', ( #22 ), #117 ) ;
#75 = FILL_AREA_STYLE ('',( #195 ) ) ;
#76 = VECTOR ( 'NONE', #11, 1000.000000000000100 ) ;
#77 = AXIS2_PLACEMENT_3D ( 'NONE', #279, #223, #67 ) ;
#78 = PLANE ( 'NONE',  #151 ) ;
#79 = ORIENTED_EDGE ( 'NONE', *, *, #157, .F. ) ;
#80 = SHAPE_DEFINITION_REPRESENTATION ( #302, #117 ) ;
#81 = CARTESIAN_POINT ( 'NONE',  ( 63.17559219106813400, 2.312190414229759600, 2.944923282160468100 ) ) ;
#82 = CARTESIAN_POINT ( 'NONE',  ( 63.21330514999867500, -2.602755028525565600, 2.743387662029313400 ) ) ;
#83 = CARTESIAN_POINT ( 'NONE',  ( 63.28366933674988100, 3.026055615737220300, 2.360877548430299700 ) ) ;
#84 = SURFACE_STYLE_FILL_AREA ( #276 ) ;
#85 = CARTESIAN_POINT ( 'NONE',  ( 63.06237266450627700, 0.7537497278864037100, 3.537734718551141200 ) ) ;
#86 = PRODUCT_DEFINITION ( 'UNKNOWN', '', #32, #47 ) ;
#87 = CARTESIAN_POINT ( 'NONE',  ( 64.23590499894416400, -3.282421216992868800, -3.502227892803216700 ) ) ;
#88 = ORIENTED_EDGE ( 'NONE', *, *, #332, .T. ) ;
#89 = CARTESIAN_POINT ( 'NONE',  ( 64.39633939086418500, -1.810168519534575400, -4.618208055952933900 ) ) ;
#90 = ORIENTED_EDGE ( 'NONE', *, *, #135, .F. ) ;
#91 = CARTESIAN_POINT ( 'NONE',  ( 65.92891758621347300, 2.594442916135708500, 2.729384794913850800 ) ) ;
#92 =( NAMED_UNIT ( * ) SI_UNIT ( $, .STERADIAN. ) SOLID_ANGLE_UNIT ( ) );
#93 = MECHANICAL_DESIGN_GEOMETRIC_PRESENTATION_REPRESENTATION (  '', ( #74 ), #103 ) ;
#94 = FACE_OUTER_BOUND ( 'NONE', #20, .T. ) ;
#95 = CARTESIAN_POINT ( 'NONE',  ( 59.44999999999998200, 0.0000000000000000000, 0.0000000000000000000 ) ) ;
#96 = CARTESIAN_POINT ( 'NONE',  ( 63.41247222377987900, 3.605735840708065500, 1.643123601942434200 ) ) ;
#97 = MECHANICAL_DESIGN_GEOMETRIC_PRESENTATION_REPRESENTATION (  '', ( #202 ), #113 ) ;
#98 = CARTESIAN_POINT ( 'NONE',  ( 64.45000000000006000, -1.263005752304101000E-023, -5.000000000000052400 ) ) ;
#99 = ORIENTED_EDGE ( 'NONE', *, *, #238, .T. ) ;
#100 = ADVANCED_FACE ( 'NONE', ( #73 ), #31, .F. ) ;
#101 = APPLICATION_CONTEXT ( 'automotive_design' ) ;
#102 = APPLICATION_PROTOCOL_DEFINITION ( 'draft international standard', 'automotive_design', 1998, #335 ) ;
#103 =( GEOMETRIC_REPRESENTATION_CONTEXT ( 3 ) GLOBAL_UNCERTAINTY_ASSIGNED_CONTEXT ( ( #240 ) ) GLOBAL_UNIT_ASSIGNED_CONTEXT ( ( #174, #254, #21 ) ) REPRESENTATION_CONTEXT ( 'NONE', 'WORKASPACE' ) );
#104 = CARTESIAN_POINT ( 'NONE',  ( -79.66162912480135100, 0.0000000000000000000, -5.000000000000000000 ) ) ;
#105 = EDGE_LOOP ( 'NONE', ( #8 ) ) ;
#106 = ADVANCED_FACE ( 'NONE', ( #55 ), #210, .F. ) ;
#107 = CARTESIAN_POINT ( 'NONE',  ( 63.00000000000000000, 3.416771834534555000, 0.9634159178316308300 ) ) ;
#108 = EDGE_CURVE ( 'NONE', #163, #325, #51, .T. ) ;
#109 = CARTESIAN_POINT ( 'NONE',  ( 63.05029843355010400, 0.1944430877750656600, 3.599914285072512300 ) ) ;
#110 = FACE_OUTER_BOUND ( 'NONE', #155, .T. ) ;
#111 = CARTESIAN_POINT ( 'NONE',  ( 63.35654508316698500, -3.385336700070731700, 1.958035279034758800 ) ) ;
#112 = CARTESIAN_POINT ( 'NONE',  ( 63.05623180408698400, -0.5471033443644312000, 3.569386730365169000 ) ) ;
#113 =( GEOMETRIC_REPRESENTATION_CONTEXT ( 3 ) GLOBAL_UNCERTAINTY_ASSIGNED_CONTEXT ( ( #204 ) ) GLOBAL_UNIT_ASSIGNED_CONTEXT ( ( #224, #328, #247 ) ) REPRESENTATION_CONTEXT ( 'NONE', 'WORKASPACE' ) );
#114 = DIRECTION ( 'NONE',  ( 0.0000000000000000000, 0.0000000000000000000, 1.000000000000000000 ) ) ;
#115 = VERTEX_POINT ( 'NONE', #235 ) ;
#116 = CARTESIAN_POINT ( 'NONE',  ( 30.93431457505064900, 0.0000000000000000000, -35.93431457505076300 ) ) ;
#117 = ADVANCED_BREP_SHAPE_REPRESENTATION ( 'U10.B10.001.037', ( #303, #234 ), #243 ) ;
#118 = VERTEX_POINT ( 'NONE', #91 ) ;
#119 = CARTESIAN_POINT ( 'NONE',  ( 64.41619100108526700, -1.467510629380982300, -4.759152424155217000 ) ) ;
#120 = COLOUR_RGB ( '',1.000000000000000000, 1.000000000000000000, 0.5019607843137254800 ) ;
#121 = CARTESIAN_POINT ( 'NONE',  ( 68.00000000000000000, 0.0000000000000000000, -5.000000000000082600 ) ) ;
#122 = CARTESIAN_POINT ( 'NONE',  ( 68.00000000000000000, 0.0000000000000000000, -5.000000000000082600 ) ) ;
#123 = CARTESIAN_POINT ( 'NONE',  ( 63.26844778088005900, 3.549399733429241500, 1.419427872077596400 ) ) ;
#124 = ORIENTED_EDGE ( 'NONE', *, *, #207, .T. ) ;
#125 = EDGE_CURVE ( 'NONE', #126, #181, #236, .T. ) ;
#126 = VERTEX_POINT ( 'NONE', #323 ) ;
#127 = FACE_OUTER_BOUND ( 'NONE', #23, .T. ) ;
#128 = ADVANCED_FACE ( 'NONE', ( #197 ), #242, .F. ) ;
#129 = LINE ( 'NONE', #239, #203 ) ;
#130 = DIRECTION ( 'NONE',  ( 1.000000000000000000, 0.0000000000000000000, 0.0000000000000000000 ) ) ;
#131 = CARTESIAN_POINT ( 'NONE',  ( 63.38528717920836900, 3.505724190265617300, 1.797035095985199500 ) ) ;
#132 = EDGE_LOOP ( 'NONE', ( #333 ) ) ;
#133 = CARTESIAN_POINT ( 'NONE',  ( 63.05177594413212500, 0.1537701391316181300, -3.599389389721463100 ) ) ;
#134 = CARTESIAN_POINT ( 'NONE',  ( 63.70074035226348700, -4.254338380225003200, -0.04767094701804759600 ) ) ;
#135 = EDGE_CURVE ( 'NONE', #118, #163, #36, .T. ) ;
#136 = DIRECTION ( 'NONE',  ( 0.0000000000000000000, 0.0000000000000000000, 1.000000000000000000 ) ) ;
#137 = ORIENTED_EDGE ( 'NONE', *, *, #108, .F. ) ;
#138 = CARTESIAN_POINT ( 'NONE',  ( 65.21764681476257400, 4.974401302899165600, 5.383883451907403000 ) ) ;
#139 = ORIENTED_EDGE ( 'NONE', *, *, #53, .T. ) ;
#140 = VECTOR ( 'NONE', #130, 1000.000000000000000 ) ;
#141 = CARTESIAN_POINT ( 'NONE',  ( 64.34201252698081000, -2.452859371920794300, -4.236677132948321000 ) ) ;
#142 = SURFACE_STYLE_USAGE ( .BOTH. , #171 ) ;
#143 = LINE ( 'NONE', #95, #277 ) ;
#144 = CARTESIAN_POINT ( 'NONE',  ( 66.48113907580756200, -4.076595496027691100, 0.6684661387173064200 ) ) ;
#145 = AXIS2_PLACEMENT_3D ( 'NONE', #116, #62, #164 ) ;
#146 = FILL_AREA_STYLE_COLOUR ( '', #120 ) ;
#147 = CARTESIAN_POINT ( 'NONE',  ( 0.0000000000000000000, 0.0000000000000000000, 0.0000000000000000000 ) ) ;
#148 = ORIENTED_EDGE ( 'NONE', *, *, #249, .T. ) ;
#149 = APPLICATION_PROTOCOL_DEFINITION ( 'draft international standard', 'automotive_design', 1998, #101 ) ;
#150 = SURFACE_SIDE_STYLE ('',( #63 ) ) ;
#151 = AXIS2_PLACEMENT_3D ( 'NONE', #282, #258, #313 ) ;
#152 = FACE_OUTER_BOUND ( 'NONE', #227, .T. ) ;
#153 = B_SPLINE_CURVE_WITH_KNOTS ( 'NONE', 3,
 ( #96, #123, #301, #252 ),
 .UNSPECIFIED., .F., .F.,
 ( 4, 4 ),
 ( 0.001825292776887271600, 0.002640802206716960600 ),
 .UNSPECIFIED. ) ;
#154 = ORIENTED_EDGE ( 'NONE', *, *, #332, .F. ) ;
#155 = EDGE_LOOP ( 'NONE', ( #148, #179, #79 ) ) ;
#156 = CARTESIAN_POINT ( 'NONE',  ( 16.50474071877498600, 20.40649904680936500, -21.50474071877505400 ) ) ;
#157 = EDGE_CURVE ( 'NONE', #118, #115, #330, .T. ) ;
#158 = CARTESIAN_POINT ( 'NONE',  ( 63.40986673067276800, -3.600505463881575400, 1.658377872869280800 ) ) ;
#159 = DIRECTION ( 'NONE',  ( 0.0000000000000000000, 0.0000000000000000000, -1.000000000000000000 ) ) ;
#160 = VERTEX_POINT ( 'NONE', #225 ) ;
#161 = DIRECTION ( 'NONE',  ( 0.0000000000000000000, 0.0000000000000000000, 1.000000000000000000 ) ) ;
#162 = CARTESIAN_POINT ( 'NONE',  ( 63.93618029583937800, -4.238194634370517000, -1.515704633120151800 ) ) ;
#163 = VERTEX_POINT ( 'NONE', #298 ) ;
#164 = DIRECTION ( 'NONE',  ( 0.0000000000000000000, 0.0000000000000000000, -1.000000000000000000 ) ) ;
#165 = ORIENTED_EDGE ( 'NONE', *, *, #304, .F. ) ;
#166 = CARTESIAN_POINT ( 'NONE',  ( 65.92891758621347300, 2.594442916135708500, 2.729384794913850800 ) ) ;
#167 = DIRECTION ( 'NONE',  ( 1.000000000000000000, -0.0000000000000000000, -0.0000000000000000000 ) ) ;
#168 = CONICAL_SURFACE ( 'NONE', #77, 5.000000000000000000, 0.7853981633974460600 ) ;
#169 = DIRECTION ( 'NONE',  ( -1.000000000000000000, -0.0000000000000000000, -0.0000000000000000000 ) ) ;
#170 = AXIS2_PLACEMENT_3D ( 'NONE', #45, #169, #246 ) ;
#171 = SURFACE_SIDE_STYLE ('',( #84 ) ) ;
#172 = CARTESIAN_POINT ( 'NONE',  ( 68.00000000000000000, -3.220951789543002400, -5.000000000000052400 ) ) ;
#173 = ORIENTED_EDGE ( 'NONE', *, *, #135, .T. ) ;
#174 =( LENGTH_UNIT ( ) NAMED_UNIT ( * ) SI_UNIT ( .MILLI., .METRE. ) );
#175 = ADVANCED_FACE ( 'NONE', ( #321, #211 ), #273, .T. ) ;
#176 = UNCERTAINTY_MEASURE_WITH_UNIT (LENGTH_MEASURE( 1.000000000000000100E-005 ), #196, 'distance_accuracy_value', 'NONE');
#177 = EDGE_LOOP ( 'NONE', ( #99, #19, #305, #24 ) ) ;
#178 = AXIS2_PLACEMENT_3D ( 'NONE', #294, #7, #136 ) ;
#179 = ORIENTED_EDGE ( 'NONE', *, *, #194, .F. ) ;
#180 = CARTESIAN_POINT ( 'NONE',  ( 63.35896770148350000, 3.395970151698615200, 1.944460977160067800 ) ) ;
#181 = VERTEX_POINT ( 'NONE', #272 ) ;
#182 = VERTEX_POINT ( 'NONE', #198 ) ;
#183 = CARTESIAN_POINT ( 'NONE',  ( 31.00000000000000000, 0.0000000000000000000, 0.0000000000000000000 ) ) ;
#184 = CONICAL_SURFACE ( 'NONE', #44, 4.450000000000000200, 1.047197551196597000 ) ;
#185 = CARTESIAN_POINT ( 'NONE',  ( 63.13871357816544400, -1.970263875167979500, 3.140495514187747100 ) ) ;
#186 = DIRECTION ( 'NONE',  ( -1.000000000000000000, -0.0000000000000000000, -0.0000000000000000000 ) ) ;
#187 = ORIENTED_EDGE ( 'NONE', *, *, #39, .F. ) ;
#188 = CARTESIAN_POINT ( 'NONE',  ( 64.45000000000006000, -1.263005752304101000E-023, -5.000000000000052400 ) ) ;
#189 = CARTESIAN_POINT ( 'NONE',  ( 65.06383993577635700, 2.992954345801416100, 2.427887413070664000 ) ) ;
#190 = CARTESIAN_POINT ( 'NONE',  ( 64.04537444175603900, -4.024487058032369700, -2.225826176271152400 ) ) ;
#191 = ORIENTED_EDGE ( 'NONE', *, *, #207, .F. ) ;
#192 = CARTESIAN_POINT ( 'NONE',  ( 73.25064852463231100, 0.0000000000000000000, -24.59568706661495300 ) ) ;
#193 = VECTOR ( 'NONE', #9, 1000.000000000000100 ) ;
#194 = EDGE_CURVE ( 'NONE', #115, #250, #286, .T. ) ;
#195 = FILL_AREA_STYLE_COLOUR ( '', #230 ) ;
#196 =( LENGTH_UNIT ( ) NAMED_UNIT ( * ) SI_UNIT ( .MILLI., .METRE. ) );
#197 = FACE_OUTER_BOUND ( 'NONE', #177, .T. ) ;
#198 = CARTESIAN_POINT ( 'NONE',  ( 31.00000000000000000, 0.0000000000000000000, 4.450000000000000200 ) ) ;
#199 = DIRECTION ( 'NONE',  ( 0.0000000000000000000, 0.0000000000000000000, 1.000000000000000000 ) ) ;
#200 = FACE_OUTER_BOUND ( 'NONE', #312, .T. ) ;
#201 = CARTESIAN_POINT ( 'NONE',  ( 63.00000000000000000, 0.2306067067090946700, -3.542502017899323600 ) ) ;
#202 = STYLED_ITEM ( 'NONE', ( #68 ), #303 ) ;
#203 = VECTOR ( 'NONE', #220, 1000.000000000000000 ) ;
#204 = UNCERTAINTY_MEASURE_WITH_UNIT (LENGTH_MEASURE( 1.000000000000000100E-005 ), #224, 'distance_accuracy_value', 'NONE');
#205 = CARTESIAN_POINT ( 'NONE',  ( 63.06855721285909100, -0.9156794295877304100, 3.505770009638075700 ) ) ;
#206 = DIRECTION ( 'NONE',  ( -0.4999999999999998900, -0.7071067811865465700, 0.5000000000000014400 ) ) ;
#207 = EDGE_CURVE ( 'NONE', #182, #182, #256, .T. ) ;
#208 = CARTESIAN_POINT ( 'NONE',  ( 63.15931457505077900, 0.0000000000000000000, -3.709314575050760300 ) ) ;
#209 = CARTESIAN_POINT ( 'NONE',  ( 63.00000000000000000, 0.2306067067090946700, -3.542502017899323600 ) ) ;
#210 = PLANE ( 'NONE',  #28 ) ;
#211 = FACE_BOUND ( 'NONE', #34, .T. ) ;
#212 = DIRECTION ( 'NONE',  ( -1.000000000000000000, -0.0000000000000000000, -0.0000000000000000000 ) ) ;
#213 = CARTESIAN_POINT ( 'NONE',  ( 64.45000000000008800, -0.1859234446922507200, -5.000000000000054200 ) ) ;
#214 = CARTESIAN_POINT ( 'NONE',  ( 64.01846705755070800, -4.086988181837143400, -2.049604600690716300 ) ) ;
#215 = ORIENTED_EDGE ( 'NONE', *, *, #238, .F. ) ;
#216 = CARTESIAN_POINT ( 'NONE',  ( 64.44832006762047200, -0.3710732922458484000, -4.987992396645086800 ) ) ;
#217 = DIRECTION ( 'NONE',  ( 0.0000000000000000000, 0.0000000000000000000, 1.000000000000000000 ) ) ;
#218 = PRESENTATION_LAYER_ASSIGNMENT (  '', '', ( #74 ) ) ;
#219 = DIRECTION ( 'NONE',  ( 0.0000000000000000000, 0.0000000000000000000, 1.000000000000000000 ) ) ;
#220 = DIRECTION ( 'NONE',  ( 0.7071067811865487900, -0.0000000000000000000, 0.7071067811865463500 ) ) ;
#221 = CIRCLE ( 'NONE', #178, 4.000000000000000000 ) ;
#222 = AXIS2_PLACEMENT_3D ( 'NONE', #329, #16, #219 ) ;
#223 = DIRECTION ( 'NONE',  ( 1.000000000000000000, 0.0000000000000000000, 0.0000000000000000000 ) ) ;
#224 =( LENGTH_UNIT ( ) NAMED_UNIT ( * ) SI_UNIT ( .MILLI., .METRE. ) );
#225 = CARTESIAN_POINT ( 'NONE',  ( 1.000000000000000900, 0.0000000000000000000, 5.000000000000000900 ) ) ;
#226 = EDGE_LOOP ( 'NONE', ( #124 ) ) ;
#227 = EDGE_LOOP ( 'NONE', ( #297 ) ) ;
#228 = CARTESIAN_POINT ( 'NONE',  ( 1.000000000000000900, 0.0000000000000000000, 0.0000000000000000000 ) ) ;
#229 = CLOSED_SHELL ( 'NONE', ( #284, #100, #106, #46, #251, #71, #175, #128, #308, #18 ) ) ;
#230 = COLOUR_RGB ( '',1.000000000000000000, 1.000000000000000000, 0.5019607843137254800 ) ;
#231 = ORIENTED_EDGE ( 'NONE', *, *, #125, .T. ) ;
#232 = DIRECTION ( 'NONE',  ( 1.000000000000000000, 0.0000000000000000000, 0.0000000000000000000 ) ) ;
#233 = CARTESIAN_POINT ( 'NONE',  ( 63.05674091590877600, 0.5674174345815005100, 3.566743564240757900 ) ) ;
#234 = AXIS2_PLACEMENT_3D ( 'NONE', #147, #253, #259 ) ;
#235 = CARTESIAN_POINT ( 'NONE',  ( 66.70428888039592200, 0.0000000000000000000, -0.1643402697056213500 ) ) ;
#236 = CIRCLE ( 'NONE', #13, 3.549999999999999800 ) ;
#237 = CARTESIAN_POINT ( 'NONE',  ( 63.10895157853791900, -1.631460017345016900, 3.296050774093255000 ) ) ;
#238 = EDGE_CURVE ( 'NONE', #72, #115, #129, .T. ) ;
#239 = CARTESIAN_POINT ( 'NONE',  ( 30.93431457505064900, 0.0000000000000000000, -35.93431457505076300 ) ) ;
#240 = UNCERTAINTY_MEASURE_WITH_UNIT (LENGTH_MEASURE( 1.000000000000000100E-005 ), #174, 'distance_accuracy_value', 'NONE');
#241 = ORIENTED_EDGE ( 'NONE', *, *, #316, .T. ) ;
#242 = PLANE ( 'NONE',  #145 ) ;
#243 =( GEOMETRIC_REPRESENTATION_CONTEXT ( 3 ) GLOBAL_UNCERTAINTY_ASSIGNED_CONTEXT ( ( #176 ) ) GLOBAL_UNIT_ASSIGNED_CONTEXT ( ( #196, #70, #92 ) ) REPRESENTATION_CONTEXT ( 'NONE', 'WORKASPACE' ) );
#244 = CARTESIAN_POINT ( 'NONE',  ( 65.92891758621347300, 2.594442916135708500, 2.729384794913850800 ) ) ;
#245 = DIRECTION ( 'NONE',  ( 0.0000000000000000000, 0.0000000000000000000, 1.000000000000000000 ) ) ;
#246 = DIRECTION ( 'NONE',  ( 0.0000000000000000000, 0.0000000000000000000, 1.000000000000000000 ) ) ;
#247 =( NAMED_UNIT ( * ) SI_UNIT ( $, .STERADIAN. ) SOLID_ANGLE_UNIT ( ) );
#248 = DIRECTION ( 'NONE',  ( 0.7071067811865491300, 0.0000000000000000000, -0.7071067811865459100 ) ) ;
#249 = EDGE_CURVE ( 'NONE', #118, #250, #278, .T. ) ;
#250 = VERTEX_POINT ( 'NONE', #121 ) ;
#251 = ADVANCED_FACE ( 'NONE', ( #263, #3 ), #15, .T. ) ;
#252 = CARTESIAN_POINT ( 'NONE',  ( 63.00000000000000000, 3.416771834534555000, 0.9634159178316308300 ) ) ;
#253 = DIRECTION ( 'NONE',  ( 0.0000000000000000000, 0.0000000000000000000, 1.000000000000000000 ) ) ;
#254 =( NAMED_UNIT ( * ) PLANE_ANGLE_UNIT ( ) SI_UNIT ( $, .RADIAN. ) );
#255 = ORIENTED_EDGE ( 'NONE', *, *, #125, .F. ) ;
#256 = CIRCLE ( 'NONE', #49, 4.450000000000000200 ) ;
#257 = PRODUCT_RELATED_PRODUCT_CATEGORY ( 'part', '', ( #337 ) ) ;
#258 = DIRECTION ( 'NONE',  ( -0.9659258262890699800, 0.0000000000000000000, -0.2588190451025144100 ) ) ;
#259 = DIRECTION ( 'NONE',  ( 1.000000000000000000, 0.0000000000000000000, 0.0000000000000000000 ) ) ;
#260 = PRESENTATION_LAYER_ASSIGNMENT (  '', '', ( #202 ) ) ;
#261 = VERTEX_POINT ( 'NONE', #66 ) ;
#262 = CARTESIAN_POINT ( 'NONE',  ( 63.25687621800543800, -2.886971495444148300, 2.508475025790930100 ) ) ;
#263 = FACE_OUTER_BOUND ( 'NONE', #12, .T. ) ;
#264 = EDGE_CURVE ( 'NONE', #29, #29, #311, .T. ) ;
#265 = CARTESIAN_POINT ( 'NONE',  ( 63.58166784166518000, -4.093445414735746200, 0.6672801718979766200 ) ) ;
#266 = CARTESIAN_POINT ( 'NONE',  ( 63.11032153064205400, 1.648346543150387200, 3.289326353021996900 ) ) ;
#267 = CARTESIAN_POINT ( 'NONE',  ( 63.04861899968777500, -0.1774158788108697900, 3.608540822911286700 ) ) ;
#268 = CARTESIAN_POINT ( 'NONE',  ( 64.12131920489611000, -3.795913220854908700, -2.728665348703081900 ) ) ;
#269 = AXIS2_PLACEMENT_3D ( 'NONE', #156, #206, #54 ) ;
#270 = CARTESIAN_POINT ( 'NONE',  ( 63.00000000000000000, 0.0000000000000000000, 0.0000000000000000000 ) ) ;
#271 = ORIENTED_EDGE ( 'NONE', *, *, #304, .T. ) ;
#272 = CARTESIAN_POINT ( 'NONE',  ( 63.00000000000000000, 3.416771834534555000, 0.9634159178316308300 ) ) ;
#273 = CONICAL_SURFACE ( 'NONE', #293, 3.549999999999999800, 0.02811758774612291300 ) ;
#274 = CARTESIAN_POINT ( 'NONE',  ( 64.43649025117387900, -0.9246472041808646600, -4.903583293771984800 ) ) ;
#275 = CARTESIAN_POINT ( 'NONE',  ( 65.66294941074551200, -3.051650102041792800, 3.721991538956733500 ) ) ;
#276 = FILL_AREA_STYLE ('',( #146 ) ) ;
#277 = VECTOR ( 'NONE', #248, 1000.000000000000000 ) ;
#278 =( BOUNDED_CURVE ( )  B_SPLINE_CURVE ( 3, ( #166, #320, #275, #144, #43, #172, #122 ),
 .UNSPECIFIED., .F., .T. ) 
 B_SPLINE_CURVE_WITH_KNOTS ( ( 4, 3, 4 ),
 ( 2.493907026522450600, 4.388546166851018200, 6.283185307179586200 ),
 .UNSPECIFIED. ) 
 CURVE ( )  GEOMETRIC_REPRESENTATION_ITEM ( )  RATIONAL_B_SPLINE_CURVE ( ( 1.000000000000000000, 0.7225742002878409200, 0.7225742002878409200, 1.000000000000000000, 0.7225742002878409200, 0.7225742002878409200, 1.000000000000000000 ) ) 
 REPRESENTATION_ITEM ( '' )  );
#279 = CARTESIAN_POINT ( 'NONE',  ( 64.45000000000000300, 0.0000000000000000000, 0.0000000000000000000 ) ) ;
#280 = ORIENTED_EDGE ( 'NONE', *, *, #60, .T. ) ;
#281 = FACE_OUTER_BOUND ( 'NONE', #132, .T. ) ;
#282 = CARTESIAN_POINT ( 'NONE',  ( 64.65741368663682900, -5.000000000000000900, 7.474701950155967700 ) ) ;
#283 = CARTESIAN_POINT ( 'NONE',  ( 59.51239858752472100, 4.192673432137028500, -1.426894932247273000 ) ) ;
#284 = ADVANCED_FACE ( 'NONE', ( #127 ), #168, .T. ) ;
#285 = ORIENTED_EDGE ( 'NONE', *, *, #249, .F. ) ;
#286 = LINE ( 'NONE', #192, #76 ) ;
#287 = CARTESIAN_POINT ( 'NONE',  ( 63.43730769571607900, -3.697782550763500300, 1.502640396100274300 ) ) ;
#288 = CARTESIAN_POINT ( 'NONE',  ( 63.30821468127918900, 3.156561103709729600, 2.226085307680344600 ) ) ;
#289 = AXIS2_PLACEMENT_3D ( 'NONE', #14, #167, #69 ) ;
#290 = CARTESIAN_POINT ( 'NONE',  ( 63.67093059464942700, -4.222718927934616700, 0.1327392174729398200 ) ) ;
#291 = DIRECTION ( 'NONE',  ( -1.000000000000000000, -0.0000000000000000000, -0.0000000000000000000 ) ) ;
#292 = CIRCLE ( 'NONE', #42, 5.000000000000000900 ) ;
#293 = AXIS2_PLACEMENT_3D ( 'NONE', #324, #186, #217 ) ;
#294 = CARTESIAN_POINT ( 'NONE',  ( 0.0000000000000000000, 0.0000000000000000000, 0.0000000000000000000 ) ) ;
#295 = CARTESIAN_POINT ( 'NONE',  ( 64.30979928973155800, -2.748384896075261300, -4.012255632761990900 ) ) ;
#296 = EDGE_LOOP ( 'NONE', ( #191 ) ) ;
#297 = ORIENTED_EDGE ( 'NONE', *, *, #264, .F. ) ;
#298 = CARTESIAN_POINT ( 'NONE',  ( 63.41247222377987900, 3.605735840708065500, 1.643123601942434200 ) ) ;
#299 = CARTESIAN_POINT ( 'NONE',  ( 64.19221922555495000, -3.514917879417423000, -3.204276843524370900 ) ) ;
#300 = CARTESIAN_POINT ( 'NONE',  ( 64.44158958693596200, -0.7398254455541359900, -4.939957991050935200 ) ) ;
#301 = CARTESIAN_POINT ( 'NONE',  ( 63.13016465498350300, 3.487218450061305000, 1.193207131916347100 ) ) ;
#302 = PRODUCT_DEFINITION_SHAPE ( 'NONE', 'NONE',  #86 ) ;
#303 = MANIFOLD_SOLID_BREP ( 'Schnitt-Linear austragen3', #229 ) ;
#304 = EDGE_CURVE ( 'NONE', #163, #181, #153, .T. ) ;
#305 = ORIENTED_EDGE ( 'NONE', *, *, #1, .F. ) ;
#306 = CARTESIAN_POINT ( 'NONE',  ( 30.68245735194570400, 0.0000000000000000000, 5.000000000000000000 ) ) ;
#307 = ORIENTED_EDGE ( 'NONE', *, *, #157, .T. ) ;
#308 = ADVANCED_FACE ( 'NONE', ( #94 ), #59, .T. ) ;
#309 =( BOUNDED_CURVE ( )  B_SPLINE_CURVE ( 3, ( #107, #283, #314, #201 ),
 .UNSPECIFIED., .F., .F. ) 
 B_SPLINE_CURVE_WITH_KNOTS ( ( 4, 4 ),
 ( 5.354402609082602500, 7.211968005276570000 ),
 .UNSPECIFIED. ) 
 CURVE ( )  GEOMETRIC_REPRESENTATION_ITEM ( )  RATIONAL_B_SPLINE_CURVE ( ( 1.000000000000000000, 0.7325395683890271200, 0.7325395683890271200, 1.000000000000000000 ) ) 
 REPRESENTATION_ITEM ( '' )  );
#310 = SURFACE_STYLE_USAGE ( .BOTH. , #150 ) ;
#311 = CIRCLE ( 'NONE', #170, 5.000000000000000000 ) ;
#312 = EDGE_LOOP ( 'NONE', ( #88 ) ) ;
#313 = DIRECTION ( 'NONE',  ( -0.2588190451025144100, 0.0000000000000000000, 0.9659258262890699800 ) ) ;
#314 = CARTESIAN_POINT ( 'NONE',  ( 59.51239858752472100, 2.742847254222684900, -3.477258776137278400 ) ) ;
#315 = CARTESIAN_POINT ( 'NONE',  ( 63.15931457505077900, 0.0000000000000000000, -3.709314575050760300 ) ) ;
#316 = EDGE_CURVE ( 'NONE', #72, #325, #143, .T. ) ;
#317 = CARTESIAN_POINT ( 'NONE',  ( 63.76046926137013300, -4.294468999170058000, -0.4129834120981704700 ) ) ;
#318 = CARTESIAN_POINT ( 'NONE',  ( 63.10495287074366600, 0.07687905950481438400, -3.654952870743660900 ) ) ;
#319 = EDGE_LOOP ( 'NONE', ( #139 ) ) ;
#320 = CARTESIAN_POINT ( 'NONE',  ( 65.40820210618997500, 0.02579089963709087900, 4.672721422649217100 ) ) ;
#321 = FACE_OUTER_BOUND ( 'NONE', #296, .T. ) ;
#322 = ORIENTED_EDGE ( 'NONE', *, *, #1, .T. ) ;
#323 = CARTESIAN_POINT ( 'NONE',  ( 63.00000000000000000, 0.2306067067090946700, -3.542502017899323600 ) ) ;
#324 = CARTESIAN_POINT ( 'NONE',  ( 63.00000000000000000, 0.0000000000000000000, 0.0000000000000000000 ) ) ;
#325 = VERTEX_POINT ( 'NONE', #98 ) ;
#326 = LINE ( 'NONE', #104, #140 ) ;
#327 = CARTESIAN_POINT ( 'NONE',  ( 64.35686677683239100, -2.295653855711543100, -4.340724078679740700 ) ) ;
#328 =( NAMED_UNIT ( * ) PLANE_ANGLE_UNIT ( ) SI_UNIT ( $, .RADIAN. ) );
#329 = CARTESIAN_POINT ( 'NONE',  ( -79.66162912480135100, 0.0000000000000000000, 0.0000000000000000000 ) ) ;
#330 = LINE ( 'NONE', #138, #193 ) ;
#331 = CARTESIAN_POINT ( 'NONE',  ( 1.000000000000000900, 0.0000000000000000000, 0.0000000000000000000 ) ) ;
#332 = EDGE_CURVE ( 'NONE', #160, #160, #292, .T. ) ;
#333 = ORIENTED_EDGE ( 'NONE', *, *, #53, .F. ) ;
#334 = FACE_BOUND ( 'NONE', #226, .T. ) ;
#335 = APPLICATION_CONTEXT ( 'automotive_design' ) ;
#336 = AXIS2_PLACEMENT_3D ( 'NONE', #228, #26, #57 ) ;
#337 = PRODUCT ( 'U10.B10.001.037', 'U10.B10.001.037', '', ( #48 ) ) ;
ENDSEC;
END-ISO-10303-21;
