ISO-10303-21;
HEADER;
FILE_DESCRIPTION (( 'STEP AP214' ),
    '1' );
FILE_NAME ('U10.B09.002.034.STEP',
    '2020-10-01T11:35:04',
    ( '' ),
    ( '' ),
    'SwSTEP 2.0',
    'SolidWorks 2017',
    '' );
FILE_SCHEMA (( 'AUTOMOTIVE_DESIGN' ));
ENDSEC;

DATA;
#1 = AXIS2_PLACEMENT_3D ( 'NONE', #134, #21, #246 ) ;
#2 = VECTOR ( 'NONE', #264, 1000.000000000000200 ) ;
#3 = DIRECTION ( 'NONE',  ( 0.0000000000000000000, 0.0000000000000000000, 1.000000000000000000 ) ) ;
#4 = CARTESIAN_POINT ( 'NONE',  ( 63.04653236298901900, -0.7916156215552854200, -0.9416103353023994600 ) ) ;
#5 = CLOSED_SHELL ( 'NONE', ( #38, #85, #109, #317, #99, #263, #17, #158, #26, #96 ) ) ;
#6 = CARTESIAN_POINT ( 'NONE',  ( 63.39338956276642300, -4.460542938996039400, -2.236099027842803000 ) ) ;
#7 =( BOUNDED_CURVE ( )  B_SPLINE_CURVE ( 3, ( #316, #125, #157, #240 ),
 .UNSPECIFIED., .F., .F. ) 
 B_SPLINE_CURVE_WITH_KNOTS ( ( 4, 4 ),
 ( 5.134469254567477500, 7.285672331738373600 ),
 .UNSPECIFIED. ) 
 CURVE ( )  GEOMETRIC_REPRESENTATION_ITEM ( )  RATIONAL_B_SPLINE_CURVE ( ( 1.000000000000000000, 0.6501353665248634800, 0.6501353665248634800, 1.000000000000000000 ) ) 
 REPRESENTATION_ITEM ( '' )  );
#8 = VECTOR ( 'NONE', #212, 1000.000000000000100 ) ;
#9 = DIRECTION ( 'NONE',  ( 1.000000000000000000, 0.0000000000000000000, 0.0000000000000000000 ) ) ;
#10 = DIRECTION ( 'NONE',  ( -1.000000000000000000, -0.0000000000000000000, -0.0000000000000000000 ) ) ;
#11 = EDGE_LOOP ( 'NONE', ( #169, #123, #203, #229 ) ) ;
#12 = CARTESIAN_POINT ( 'NONE',  ( 60.57686679181047400, -0.03879160662540481100, 3.080679034728019100 ) ) ;
#13 = EDGE_CURVE ( 'NONE', #130, #130, #30, .T. ) ;
#14 = CARTESIAN_POINT ( 'NONE',  ( 60.79455863630136000, 2.550973990986643800, 2.107194823982272900 ) ) ;
#15 = CARTESIAN_POINT ( 'NONE',  ( 57.49999999999999300, 0.0000000000000000000, 0.0000000000000000000 ) ) ;
#16 = LINE ( 'NONE', #15, #273 ) ;
#17 = ADVANCED_FACE ( 'NONE', ( #106, #89 ), #194, .T. ) ;
#18 = LINE ( 'NONE', #4, #8 ) ;
#19 = ORIENTED_EDGE ( 'NONE', *, *, #13, .F. ) ;
#20 = MECHANICAL_DESIGN_GEOMETRIC_PRESENTATION_REPRESENTATION (  '', ( #80 ), #94 ) ;
#21 = DIRECTION ( 'NONE',  ( -1.000000000000000000, -0.0000000000000000000, -0.0000000000000000000 ) ) ;
#22 = FILL_AREA_STYLE_COLOUR ( '', #265 ) ;
#23 = ORIENTED_EDGE ( 'NONE', *, *, #83, .F. ) ;
#24 = AXIS2_PLACEMENT_3D ( 'NONE', #319, #124, #219 ) ;
#25 = MANIFOLD_SOLID_BREP ( 'Schnitt-Linear austragen3', #5 ) ;
#26 = ADVANCED_FACE ( 'NONE', ( #253 ), #62, .T. ) ;
#27 = DIRECTION ( 'NONE',  ( 0.0000000000000000000, 0.0000000000000000000, 1.000000000000000000 ) ) ;
#28 = FACE_OUTER_BOUND ( 'NONE', #102, .T. ) ;
#29 = VERTEX_POINT ( 'NONE', #115 ) ;
#30 = CIRCLE ( 'NONE', #217, 4.000000000000000000 ) ;
#31 = ORIENTED_EDGE ( 'NONE', *, *, #171, .T. ) ;
#32 = PLANE ( 'NONE',  #303 ) ;
#33 = FACE_OUTER_BOUND ( 'NONE', #208, .T. ) ;
#34 = FACE_OUTER_BOUND ( 'NONE', #165, .T. ) ;
#35 = CARTESIAN_POINT ( 'NONE',  ( 62.00000000000006400, 1.957558336305940800E-024, -4.500000000000063100 ) ) ;
#36 = CARTESIAN_POINT ( 'NONE',  ( 60.67571238530277400, 1.781477926376921800, 2.647152862245605300 ) ) ;
#37 = CONICAL_SURFACE ( 'NONE', #227, 4.500000000000000000, 0.7853981633974477200 ) ;
#38 = ADVANCED_FACE ( 'NONE', ( #305 ), #37, .T. ) ;
#39 = EDGE_LOOP ( 'NONE', ( #215 ) ) ;
#40 = CARTESIAN_POINT ( 'NONE',  ( 61.12543951784233800, -3.594520562695403800, 0.4964415788888813000 ) ) ;
#41 = DIRECTION ( 'NONE',  ( 0.0000000000000000000, 0.0000000000000000000, 1.000000000000000000 ) ) ;
#42 = DIRECTION ( 'NONE',  ( -1.000000000000000000, -0.0000000000000000000, -0.0000000000000000000 ) ) ;
#43 = CIRCLE ( 'NONE', #308, 4.000000000000000000 ) ;
#44 = PRESENTATION_STYLE_ASSIGNMENT (( #149 ) ) ;
#45 = DIRECTION ( 'NONE',  ( -1.000000000000000000, -0.0000000000000000000, -0.0000000000000000000 ) ) ;
#46 = CARTESIAN_POINT ( 'NONE',  ( 61.35714834193473900, -3.801565641135719300, -0.7208091265756111400 ) ) ;
#47 = CARTESIAN_POINT ( 'NONE',  ( 1.000000000000000900, 0.0000000000000000000, 5.000000000000000900 ) ) ;
#48 =( GEOMETRIC_REPRESENTATION_CONTEXT ( 3 ) GLOBAL_UNCERTAINTY_ASSIGNED_CONTEXT ( ( #110 ) ) GLOBAL_UNIT_ASSIGNED_CONTEXT ( ( #100, #267, #159 ) ) REPRESENTATION_CONTEXT ( 'NONE', 'WORKASPACE' ) );
#49 = VERTEX_POINT ( 'NONE', #88 ) ;
#50 = CARTESIAN_POINT ( 'NONE',  ( 61.94928344345606800, -1.530126050132633000, -4.180852665103666200 ) ) ;
#51 = B_SPLINE_CURVE_WITH_KNOTS ( 'NONE', 3,
 ( #93, #14, #292, #36, #291, #206, #75, #242, #12, #293, #156, #71, #205, #221, #321, #176, #290, #318, #70, #181, #122, #204, #40, #188, #163, #128, #46, #297, #244, #76, #189, #272, #185, #245, #329, #209, #50, #79, #82, #249, #295, #131 ),
 .UNSPECIFIED., .F., .F.,
 ( 4, 2, 2, 2, 2, 1, 2, 2, 2, 2, 2, 1, 2, 2, 2, 2, 2, 2, 2, 2, 2, 4 ),
 ( 0.0007173214470679095300, 0.001657478997353969100, 0.002597636547640028800, 0.003537794097926088200, 0.004007872873069117900, 0.004477951648212148000, 0.004948030423355178100, 0.005418109198498208300, 0.006358266748784268500, 0.007298424299070329700, 0.007768503074213359800, 0.008238581849356389100, 0.008708660624499420900, 0.009178739399642449300, 0.01011889694992851000, 0.01105905450021457000, 0.01199921205050062700, 0.01293936960078668700, 0.01387952715107274700, 0.01434960592621577600, 0.01481968470135880700, 0.01575984225164486800 ),
 .UNSPECIFIED. ) ;
#52 = AXIS2_PLACEMENT_3D ( 'NONE', #238, #148, #153 ) ;
#53 = VERTEX_POINT ( 'NONE', #35 ) ;
#54 = ADVANCED_BREP_SHAPE_REPRESENTATION ( 'U10.B09.002.034', ( #25, #302 ), #48 ) ;
#55 = AXIS2_PLACEMENT_3D ( 'NONE', #126, #10, #95 ) ;
#56 = APPLICATION_CONTEXT ( 'automotive_design' ) ;
#57 = PRODUCT_DEFINITION_FORMATION_WITH_SPECIFIED_SOURCE ( 'ANY', '', #140, .NOT_KNOWN. ) ;
#58 = VERTEX_POINT ( 'NONE', #258 ) ;
#59 = EDGE_CURVE ( 'NONE', #69, #29, #199, .T. ) ;
#60 = PRODUCT_RELATED_PRODUCT_CATEGORY ( 'part', '', ( #140 ) ) ;
#61 = CARTESIAN_POINT ( 'NONE',  ( 62.00000000000000000, 0.0000000000000000000, 0.0000000000000000000 ) ) ;
#62 = CYLINDRICAL_SURFACE ( 'NONE', #154, 3.788790998340742600 ) ;
#63 = PLANE ( 'NONE',  #322 ) ;
#64 = AXIS2_PLACEMENT_3D ( 'NONE', #182, #98, #183 ) ;
#65 = DIRECTION ( 'NONE',  ( 0.2588190451025139100, 0.0000000000000000000, -0.9659258262890700900 ) ) ;
#66 = DIRECTION ( 'NONE',  ( -0.4999999999999999400, -0.7071067811865465700, 0.5000000000000015500 ) ) ;
#67 = DIRECTION ( 'NONE',  ( 0.7071067811865487900, -0.0000000000000000000, 0.7071067811865463500 ) ) ;
#68 = VERTEX_POINT ( 'NONE', #311 ) ;
#69 = VERTEX_POINT ( 'NONE', #235 ) ;
#70 = CARTESIAN_POINT ( 'NONE',  ( 60.93063899264427600, -3.106986944224507900, 1.462650110669667400 ) ) ;
#71 = CARTESIAN_POINT ( 'NONE',  ( 60.60594728028231500, -0.9713153127463064500, 2.954352351073223500 ) ) ;
#72 = LINE ( 'NONE', #222, #2 ) ;
#73 = CARTESIAN_POINT ( 'NONE',  ( 60.50000000000000000, 0.0000000000000000000, -2.999999999999997300 ) ) ;
#74 = ORIENTED_EDGE ( 'NONE', *, *, #177, .T. ) ;
#75 = CARTESIAN_POINT ( 'NONE',  ( 60.58525213694798600, 0.5911201694151532200, 3.044369878727845300 ) ) ;
#76 = CARTESIAN_POINT ( 'NONE',  ( 61.62636922798865400, -3.483840114206906900, -2.232250766997818700 ) ) ;
#77 = APPLICATION_PROTOCOL_DEFINITION ( 'draft international standard', 'automotive_design', 1998, #224 ) ;
#78 = ORIENTED_EDGE ( 'NONE', *, *, #13, .T. ) ;
#79 = CARTESIAN_POINT ( 'NONE',  ( 61.96762193624638800, -1.237061939571886000, -4.295813671387437100 ) ) ;
#80 = STYLED_ITEM ( 'NONE', ( #44 ), #25 ) ;
#81 = DIRECTION ( 'NONE',  ( 0.0000000000000000000, 0.0000000000000000000, 1.000000000000000000 ) ) ;
#82 = CARTESIAN_POINT ( 'NONE',  ( 61.97525402701943900, -1.087900591397707600, -4.343829939869800100 ) ) ;
#83 = EDGE_CURVE ( 'NONE', #29, #278, #138, .T. ) ;
#84 = FACE_BOUND ( 'NONE', #261, .T. ) ;
#85 = ADVANCED_FACE ( 'NONE', ( #151 ), #32, .F. ) ;
#86 = ORIENTED_EDGE ( 'NONE', *, *, #168, .T. ) ;
#87 = PLANE ( 'NONE',  #52 ) ;
#88 = CARTESIAN_POINT ( 'NONE',  ( 62.15601211419187400, 2.188123206154627200, 2.381856478377505600 ) ) ;
#89 = FACE_BOUND ( 'NONE', #112, .T. ) ;
#90 = CARTESIAN_POINT ( 'NONE',  ( -79.66162912480135100, 0.0000000000000000000, -4.500000000000000000 ) ) ;
#91 = ORIENTED_EDGE ( 'NONE', *, *, #59, .T. ) ;
#92 = DIRECTION ( 'NONE',  ( 0.0000000000000000000, 0.0000000000000000000, 1.000000000000000000 ) ) ;
#93 = CARTESIAN_POINT ( 'NONE',  ( 60.84261565548818100, 2.762910027254079600, 1.881331337545974800 ) ) ;
#94 =( GEOMETRIC_REPRESENTATION_CONTEXT ( 3 ) GLOBAL_UNCERTAINTY_ASSIGNED_CONTEXT ( ( #146 ) ) GLOBAL_UNIT_ASSIGNED_CONTEXT ( ( #216, #259, #118 ) ) REPRESENTATION_CONTEXT ( 'NONE', 'WORKASPACE' ) );
#95 = DIRECTION ( 'NONE',  ( 0.0000000000000000000, 0.0000000000000000000, 1.000000000000000000 ) ) ;
#96 = ADVANCED_FACE ( 'NONE', ( #34 ), #63, .F. ) ;
#97 = CARTESIAN_POINT ( 'NONE',  ( 62.15601211419187400, 2.188123206154627200, 2.381856478377505600 ) ) ;
#98 = DIRECTION ( 'NONE',  ( 0.0000000000000000000, -1.000000000000000000, 0.0000000000000000000 ) ) ;
#99 = ADVANCED_FACE ( 'NONE', ( #101, #28 ), #287, .T. ) ;
#100 =( LENGTH_UNIT ( ) NAMED_UNIT ( * ) SI_UNIT ( .MILLI., .METRE. ) );
#101 = FACE_OUTER_BOUND ( 'NONE', #234, .T. ) ;
#102 = EDGE_LOOP ( 'NONE', ( #86 ) ) ;
#103 = FILL_AREA_STYLE ('',( #22 ) ) ;
#104 = CARTESIAN_POINT ( 'NONE',  ( 60.72542248836250400, 2.731334091948638900, 1.719483054466736100 ) ) ;
#105 = ORIENTED_EDGE ( 'NONE', *, *, #144, .T. ) ;
#106 = FACE_OUTER_BOUND ( 'NONE', #270, .T. ) ;
#107 = CARTESIAN_POINT ( 'NONE',  ( 64.00000000000000000, 0.0000000000000000000, -4.500000000000151900 ) ) ;
#108 = PRESENTATION_STYLE_ASSIGNMENT (( #129 ) ) ;
#109 = ADVANCED_FACE ( 'NONE', ( #236 ), #87, .F. ) ;
#110 = UNCERTAINTY_MEASURE_WITH_UNIT (LENGTH_MEASURE( 1.000000000000000100E-005 ), #100, 'distance_accuracy_value', 'NONE');
#111 = PRODUCT_DEFINITION ( 'UNKNOWN', '', #57, #313 ) ;
#112 = EDGE_LOOP ( 'NONE', ( #31, #314, #74 ) ) ;
#113 = EDGE_CURVE ( 'NONE', #53, #278, #121, .T. ) ;
#114 = STYLED_ITEM ( 'NONE', ( #108 ), #54 ) ;
#115 = CARTESIAN_POINT ( 'NONE',  ( 62.80995131309849500, 0.0000000000000000000, -0.05867783700302074700 ) ) ;
#116 = CARTESIAN_POINT ( 'NONE',  ( 61.96097454186791300, -2.760802624976074900, 3.109746607675405900 ) ) ;
#117 = COLOUR_RGB ( '',1.000000000000000000, 1.000000000000000000, 0.5019607843137254800 ) ;
#118 =( NAMED_UNIT ( * ) SI_UNIT ( $, .STERADIAN. ) SOLID_ANGLE_UNIT ( ) );
#119 = DIRECTION ( 'NONE',  ( 1.000000000000000000, 0.0000000000000000000, 0.0000000000000000000 ) ) ;
#120 = CARTESIAN_POINT ( 'NONE',  ( 60.00000000000000000, 0.0000000000000000000, -0.7112090016593199900 ) ) ;
#121 = LINE ( 'NONE', #90, #174 ) ;
#122 = CARTESIAN_POINT ( 'NONE',  ( 61.01248908741060700, -3.351220495165067300, 1.063183800920901600 ) ) ;
#123 = ORIENTED_EDGE ( 'NONE', *, *, #233, .T. ) ;
#124 = DIRECTION ( 'NONE',  ( -1.000000000000000000, -0.0000000000000000000, -0.0000000000000000000 ) ) ;
#125 = CARTESIAN_POINT ( 'NONE',  ( 56.32045303219734900, 4.003842647137072500, -0.8858875447151217700 ) ) ;
#126 = CARTESIAN_POINT ( 'NONE',  ( 29.42264973081036700, 0.0000000000000000000, 0.0000000000000000000 ) ) ;
#127 = ORIENTED_EDGE ( 'NONE', *, *, #211, .F. ) ;
#128 = CARTESIAN_POINT ( 'NONE',  ( 61.29996338442629900, -3.789683327265669400, -0.4128394852666504900 ) ) ;
#129 = SURFACE_STYLE_USAGE ( .BOTH. , #268 ) ;
#130 = VERTEX_POINT ( 'NONE', #228 ) ;
#131 = CARTESIAN_POINT ( 'NONE',  ( 62.00000000000006400, 1.957558336305940800E-024, -4.500000000000063100 ) ) ;
#132 = ORIENTED_EDGE ( 'NONE', *, *, #113, .F. ) ;
#133 = ORIENTED_EDGE ( 'NONE', *, *, #136, .T. ) ;
#134 = CARTESIAN_POINT ( 'NONE',  ( 30.00000000000000000, 0.0000000000000000000, 0.0000000000000000000 ) ) ;
#135 = B_SPLINE_CURVE_WITH_KNOTS ( 'NONE', 3,
 ( #161, #104, #298, #327 ),
 .UNSPECIFIED., .F., .F.,
 ( 4, 4 ),
 ( 0.001893023902374085100, 0.002499601545745645500 ),
 .UNSPECIFIED. ) ;
#136 = EDGE_CURVE ( 'NONE', #49, #29, #18, .T. ) ;
#137 = DIRECTION ( 'NONE',  ( 1.000000000000000000, 0.0000000000000000000, 0.0000000000000000000 ) ) ;
#138 = LINE ( 'NONE', #256, #230 ) ;
#139 = APPLICATION_PROTOCOL_DEFINITION ( 'draft international standard', 'automotive_design', 1998, #56 ) ;
#140 = PRODUCT ( 'U10.B09.002.034', 'U10.B09.002.034', '', ( #252 ) ) ;
#141 = FACE_OUTER_BOUND ( 'NONE', #152, .T. ) ;
#142 = CARTESIAN_POINT ( 'NONE',  ( 0.0000000000000000000, 0.0000000000000000000, 0.0000000000000000000 ) ) ;
#143 = ORIENTED_EDGE ( 'NONE', *, *, #162, .F. ) ;
#144 = EDGE_CURVE ( 'NONE', #49, #278, #225, .T. ) ;
#145 = VERTEX_POINT ( 'NONE', #73 ) ;
#146 = UNCERTAINTY_MEASURE_WITH_UNIT (LENGTH_MEASURE( 1.000000000000000100E-005 ), #216, 'distance_accuracy_value', 'NONE');
#147 = CARTESIAN_POINT ( 'NONE',  ( 28.93431457505064900, 0.0000000000000000000, -33.93431457505076300 ) ) ;
#148 = DIRECTION ( 'NONE',  ( 1.000000000000000000, 0.0000000000000000000, 0.0000000000000000000 ) ) ;
#149 = SURFACE_STYLE_USAGE ( .BOTH. , #195 ) ;
#150 = CIRCLE ( 'NONE', #55, 5.000000000000000000 ) ;
#151 = FACE_OUTER_BOUND ( 'NONE', #288, .T. ) ;
#152 = EDGE_LOOP ( 'NONE', ( #91, #248, #132, #127, #247 ) ) ;
#153 = DIRECTION ( 'NONE',  ( 0.0000000000000000000, 0.0000000000000000000, -1.000000000000000000 ) ) ;
#154 = AXIS2_PLACEMENT_3D ( 'NONE', #120, #201, #175 ) ;
#155 = DIRECTION ( 'NONE',  ( 0.0000000000000000000, 0.0000000000000000000, 1.000000000000000000 ) ) ;
#156 = CARTESIAN_POINT ( 'NONE',  ( 60.58896096420119200, -0.6664856420742305600, 3.028329126561959800 ) ) ;
#157 = CARTESIAN_POINT ( 'NONE',  ( 55.98576721895450000, 2.640940801553608900, -3.148007632165429100 ) ) ;
#158 = ADVANCED_FACE ( 'NONE', ( #141 ), #173, .F. ) ;
#159 =( NAMED_UNIT ( * ) SI_UNIT ( $, .STERADIAN. ) SOLID_ANGLE_UNIT ( ) );
#160 =( LENGTH_UNIT ( ) NAMED_UNIT ( * ) SI_UNIT ( .MILLI., .METRE. ) );
#161 = CARTESIAN_POINT ( 'NONE',  ( 60.84261565548818100, 2.762910027254079600, 1.881331337545974800 ) ) ;
#162 = EDGE_CURVE ( 'NONE', #241, #241, #43, .T. ) ;
#163 = CARTESIAN_POINT ( 'NONE',  ( 61.21285455262748300, -3.715686381446755800, 0.04546705774718355600 ) ) ;
#164 = EDGE_CURVE ( 'NONE', #184, #184, #280, .T. ) ;
#165 = EDGE_LOOP ( 'NONE', ( #105, #23, #310 ) ) ;
#166 = DIRECTION ( 'NONE',  ( -1.000000000000000000, -0.0000000000000000000, -0.0000000000000000000 ) ) ;
#167 = FILL_AREA_STYLE ('',( #306 ) ) ;
#168 = EDGE_CURVE ( 'NONE', #286, #286, #150, .T. ) ;
#169 = ORIENTED_EDGE ( 'NONE', *, *, #144, .F. ) ;
#170 = UNCERTAINTY_MEASURE_WITH_UNIT (LENGTH_MEASURE( 1.000000000000000100E-005 ), #160, 'distance_accuracy_value', 'NONE');
#171 = EDGE_CURVE ( 'NONE', #68, #69, #7, .T. ) ;
#172 = CARTESIAN_POINT ( 'NONE',  ( -79.66162912480135100, 0.0000000000000000000, 0.0000000000000000000 ) ) ;
#173 = PLANE ( 'NONE',  #64 ) ;
#174 = VECTOR ( 'NONE', #9, 1000.000000000000000 ) ;
#175 = DIRECTION ( 'NONE',  ( 0.0000000000000000000, 0.0000000000000000000, -1.000000000000000000 ) ) ;
#176 = CARTESIAN_POINT ( 'NONE',  ( 60.72015247527672700, -2.115601302099990600, 2.447640350362233700 ) ) ;
#177 = EDGE_CURVE ( 'NONE', #145, #68, #276, .T. ) ;
#178 = CARTESIAN_POINT ( 'NONE',  ( 30.00000000000000000, 0.0000000000000000000, 0.0000000000000000000 ) ) ;
#179 = ORIENTED_EDGE ( 'NONE', *, *, #171, .F. ) ;
#180 = ORIENTED_EDGE ( 'NONE', *, *, #162, .T. ) ;
#181 = CARTESIAN_POINT ( 'NONE',  ( 60.95762987200410500, -3.194436981254661100, 1.332004398320107300 ) ) ;
#182 = CARTESIAN_POINT ( 'NONE',  ( 28.93431457505064900, 0.0000000000000000000, -33.93431457505076300 ) ) ;
#183 = DIRECTION ( 'NONE',  ( 0.0000000000000000000, 0.0000000000000000000, -1.000000000000000000 ) ) ;
#184 = VERTEX_POINT ( 'NONE', #47 ) ;
#185 = CARTESIAN_POINT ( 'NONE',  ( 61.80278743037438700, -2.803949449588303300, -3.278665642041531700 ) ) ;
#186 = CARTESIAN_POINT ( 'NONE',  ( 29.42264973081036700, 0.0000000000000000000, 5.000000000000000000 ) ) ;
#187 =( NAMED_UNIT ( * ) SI_UNIT ( $, .STERADIAN. ) SOLID_ANGLE_UNIT ( ) );
#188 = CARTESIAN_POINT ( 'NONE',  ( 61.18341026472683800, -3.681209338665903300, 0.1985688862108037600 ) ) ;
#189 = CARTESIAN_POINT ( 'NONE',  ( 61.67518698462789200, -3.344877362189310400, -2.517643695268697400 ) ) ;
#190 = FACE_OUTER_BOUND ( 'NONE', #39, .T. ) ;
#191 = ORIENTED_EDGE ( 'NONE', *, *, #210, .F. ) ;
#192 = EDGE_CURVE ( 'NONE', #69, #145, #72, .T. ) ;
#193 = DIRECTION ( 'NONE',  ( -1.000000000000000000, -0.0000000000000000000, -0.0000000000000000000 ) ) ;
#194 = CONICAL_SURFACE ( 'NONE', #231, 3.000000000000000000, 0.03277514440407577200 ) ;
#195 = SURFACE_SIDE_STYLE ('',( #307 ) ) ;
#196 = CARTESIAN_POINT ( 'NONE',  ( 61.72197935391105300, -0.1016232753489900700, 4.001688791894944000 ) ) ;
#197 = DIRECTION ( 'NONE',  ( -0.2588190451025139100, 0.0000000000000000000, 0.9659258262890700900 ) ) ;
#198 = SURFACE_STYLE_FILL_AREA ( #103 ) ;
#199 = LINE ( 'NONE', #147, #325 ) ;
#200 = CARTESIAN_POINT ( 'NONE',  ( 63.99999999999997200, -2.804780860151722300, -4.500000000000063900 ) ) ;
#201 = DIRECTION ( 'NONE',  ( 1.000000000000000000, -0.0000000000000000000, -0.0000000000000000000 ) ) ;
#202 = DIRECTION ( 'NONE',  ( -0.9659258262890700900, 0.0000000000000000000, -0.2588190451025139100 ) ) ;
#203 = ORIENTED_EDGE ( 'NONE', *, *, #210, .T. ) ;
#204 = CARTESIAN_POINT ( 'NONE',  ( 61.06820344643695400, -3.490195270335973500, 0.7869948886833377800 ) ) ;
#205 = CARTESIAN_POINT ( 'NONE',  ( 60.62725409983984500, -1.272491655759854200, 2.860983385858944400 ) ) ;
#206 = CARTESIAN_POINT ( 'NONE',  ( 60.59940895082930000, 0.8984031352551562500, 2.983163873525617800 ) ) ;
#207 = DIRECTION ( 'NONE',  ( 0.7071067811865479100, 0.0000000000000000000, -0.7071067811865471300 ) ) ;
#208 = EDGE_LOOP ( 'NONE', ( #254 ) ) ;
#209 = CARTESIAN_POINT ( 'NONE',  ( 61.93850103931801200, -1.674650794079774400, -4.113436905508371500 ) ) ;
#210 = EDGE_CURVE ( 'NONE', #58, #53, #51, .T. ) ;
#211 = EDGE_CURVE ( 'NONE', #145, #53, #16, .T. ) ;
#212 = DIRECTION ( 'NONE',  ( 0.1956488079738461800, -0.6546536707079769800, -0.7301712917987015500 ) ) ;
#213 = CARTESIAN_POINT ( 'NONE',  ( 62.15601211419187400, 2.188123206154627200, 2.381856478377505600 ) ) ;
#214 = CARTESIAN_POINT ( 'NONE',  ( 64.00000000000000000, 0.0000000000000000000, -4.500000000000151900 ) ) ;
#215 = ORIENTED_EDGE ( 'NONE', *, *, #168, .F. ) ;
#216 =( LENGTH_UNIT ( ) NAMED_UNIT ( * ) SI_UNIT ( .MILLI., .METRE. ) );
#217 = AXIS2_PLACEMENT_3D ( 'NONE', #142, #166, #3 ) ;
#218 = DIRECTION ( 'NONE',  ( -1.000000000000000000, -0.0000000000000000000, -0.0000000000000000000 ) ) ;
#219 = DIRECTION ( 'NONE',  ( 0.0000000000000000000, 0.0000000000000000000, 1.000000000000000000 ) ) ;
#220 = ORIENTED_EDGE ( 'NONE', *, *, #59, .F. ) ;
#221 = CARTESIAN_POINT ( 'NONE',  ( 60.64010465569835900, -1.421179379807836000, 2.804431791951199400 ) ) ;
#222 = CARTESIAN_POINT ( 'NONE',  ( 152.0000000000000000, 0.0000000000000000000, 0.0000000000000000000 ) ) ;
#223 = ORIENTED_EDGE ( 'NONE', *, *, #283, .T. ) ;
#224 = APPLICATION_CONTEXT ( 'automotive_design' ) ;
#225 =( BOUNDED_CURVE ( )  B_SPLINE_CURVE ( 3, ( #213, #196, #116, #284, #6, #200, #214 ),
 .UNSPECIFIED., .F., .T. ) 
 B_SPLINE_CURVE_WITH_KNOTS ( ( 4, 3, 4 ),
 ( 2.525898383345526600, 4.404541845262556900, 6.283185307179586200 ),
 .UNSPECIFIED. ) 
 CURVE ( )  GEOMETRIC_REPRESENTATION_ITEM ( )  RATIONAL_B_SPLINE_CURVE ( ( 1.000000000000000000, 0.7268904206547643900, 0.7268904206547643900, 1.000000000000000000, 0.7268904206547646100, 0.7268904206547646100, 1.000000000000000000 ) ) 
 REPRESENTATION_ITEM ( '' )  );
#226 = CARTESIAN_POINT ( 'NONE',  ( 60.84261565548818100, 2.762910027254079600, 1.881331337545974800 ) ) ;
#227 = AXIS2_PLACEMENT_3D ( 'NONE', #61, #119, #285 ) ;
#228 = CARTESIAN_POINT ( 'NONE',  ( 0.0000000000000000000, 0.0000000000000000000, 4.000000000000000000 ) ) ;
#229 = ORIENTED_EDGE ( 'NONE', *, *, #113, .T. ) ;
#230 = VECTOR ( 'NONE', #65, 1000.000000000000100 ) ;
#231 = AXIS2_PLACEMENT_3D ( 'NONE', #279, #193, #232 ) ;
#232 = DIRECTION ( 'NONE',  ( 0.0000000000000000000, 0.0000000000000000000, 1.000000000000000000 ) ) ;
#233 = EDGE_CURVE ( 'NONE', #49, #58, #277, .T. ) ;
#234 = EDGE_LOOP ( 'NONE', ( #274 ) ) ;
#235 = CARTESIAN_POINT ( 'NONE',  ( 59.84722674841004400, 0.0000000000000000000, -3.021402401691474400 ) ) ;
#236 = FACE_OUTER_BOUND ( 'NONE', #326, .T. ) ;
#237 = DIRECTION ( 'NONE',  ( -1.000000000000000000, -0.0000000000000000000, -0.0000000000000000000 ) ) ;
#238 = CARTESIAN_POINT ( 'NONE',  ( 0.0000000000000000000, 0.0000000000000000000, 0.0000000000000000000 ) ) ;
#239 = CARTESIAN_POINT ( 'NONE',  ( 60.50000000000000000, 0.0000000000000000000, 0.0000000000000000000 ) ) ;
#240 = CARTESIAN_POINT ( 'NONE',  ( 59.84722674841004400, 0.0000000000000000000, -3.021402401691474400 ) ) ;
#241 = VERTEX_POINT ( 'NONE', #323 ) ;
#242 = CARTESIAN_POINT ( 'NONE',  ( 60.57727420408483000, 0.1207606101231682400, 3.078918798593391200 ) ) ;
#243 = ORIENTED_EDGE ( 'NONE', *, *, #177, .F. ) ;
#244 = CARTESIAN_POINT ( 'NONE',  ( 61.52418622107300900, -3.684494704224701200, -1.646734932781162900 ) ) ;
#245 = CARTESIAN_POINT ( 'NONE',  ( 61.87286309859340600, -2.341955460666069300, -3.706073061403206500 ) ) ;
#246 = DIRECTION ( 'NONE',  ( 0.0000000000000000000, 0.0000000000000000000, 1.000000000000000000 ) ) ;
#247 = ORIENTED_EDGE ( 'NONE', *, *, #192, .F. ) ;
#248 = ORIENTED_EDGE ( 'NONE', *, *, #83, .T. ) ;
#249 = CARTESIAN_POINT ( 'NONE',  ( 61.99367692460366900, -0.6326506117241226200, -4.459914354993485700 ) ) ;
#250 = CARTESIAN_POINT ( 'NONE',  ( 0.0000000000000000000, 0.0000000000000000000, 0.0000000000000000000 ) ) ;
#251 = TOROIDAL_SURFACE ( 'NONE', #275, 4.000000000000000000, 1.000000000000000400 ) ;
#252 = PRODUCT_CONTEXT ( 'NONE', #224, 'mechanical' ) ;
#253 = FACE_OUTER_BOUND ( 'NONE', #11, .T. ) ;
#254 = ORIENTED_EDGE ( 'NONE', *, *, #164, .T. ) ;
#255 = AXIS2_PLACEMENT_3D ( 'NONE', #172, #237, #92 ) ;
#256 = CARTESIAN_POINT ( 'NONE',  ( 69.00962312084784900, 0.0000000000000000000, -23.19616801377663900 ) ) ;
#257 =( GEOMETRIC_REPRESENTATION_CONTEXT ( 3 ) GLOBAL_UNCERTAINTY_ASSIGNED_CONTEXT ( ( #170 ) ) GLOBAL_UNIT_ASSIGNED_CONTEXT ( ( #160, #324, #187 ) ) REPRESENTATION_CONTEXT ( 'NONE', 'WORKASPACE' ) );
#258 = CARTESIAN_POINT ( 'NONE',  ( 60.84261565548818100, 2.762910027254079600, 1.881331337545974800 ) ) ;
#259 =( NAMED_UNIT ( * ) PLANE_ANGLE_UNIT ( ) SI_UNIT ( $, .RADIAN. ) );
#260 = EDGE_LOOP ( 'NONE', ( #19 ) ) ;
#261 = EDGE_LOOP ( 'NONE', ( #180 ) ) ;
#262 = PRESENTATION_LAYER_ASSIGNMENT (  '', '', ( #80 ) ) ;
#263 = ADVANCED_FACE ( 'NONE', ( #190, #84 ), #320, .T. ) ;
#264 = DIRECTION ( 'NONE',  ( 0.9994629430332292500, 0.0000000000000000000, 0.03276927682076161800 ) ) ;
#265 = COLOUR_RGB ( '',1.000000000000000000, 1.000000000000000000, 0.5019607843137254800 ) ;
#266 = CARTESIAN_POINT ( 'NONE',  ( 61.71447948347074000, 2.396232105707454300, 2.234634275854517200 ) ) ;
#267 =( NAMED_UNIT ( * ) PLANE_ANGLE_UNIT ( ) SI_UNIT ( $, .RADIAN. ) );
#268 = SURFACE_SIDE_STYLE ('',( #198 ) ) ;
#269 = PRODUCT_DEFINITION_SHAPE ( 'NONE', 'NONE',  #111 ) ;
#270 = EDGE_LOOP ( 'NONE', ( #143 ) ) ;
#271 = CARTESIAN_POINT ( 'NONE',  ( 1.000000000000000900, 0.0000000000000000000, 0.0000000000000000000 ) ) ;
#272 = CARTESIAN_POINT ( 'NONE',  ( 61.76295152069292300, -3.006015468894034400, -3.038284821466638300 ) ) ;
#273 = VECTOR ( 'NONE', #207, 1000.000000000000000 ) ;
#274 = ORIENTED_EDGE ( 'NONE', *, *, #164, .F. ) ;
#275 = AXIS2_PLACEMENT_3D ( 'NONE', #271, #45, #81 ) ;
#276 = CIRCLE ( 'NONE', #296, 3.000000000000000000 ) ;
#277 =( BOUNDED_CURVE ( )  B_SPLINE_CURVE ( 3, ( #97, #266, #301, #226 ),
 .UNSPECIFIED., .F., .T. ) 
 B_SPLINE_CURVE_WITH_KNOTS ( ( 4, 4 ),
 ( 1.571010888368773900, 1.772516448662149900 ),
 .UNSPECIFIED. ) 
 CURVE ( )  GEOMETRIC_REPRESENTATION_ITEM ( )  RATIONAL_B_SPLINE_CURVE ( ( 1.000000000000000000, 0.9966191538317661400, 0.9966191538317661400, 1.000000000000000000 ) ) 
 REPRESENTATION_ITEM ( '' )  );
#278 = VERTEX_POINT ( 'NONE', #107 ) ;
#279 = CARTESIAN_POINT ( 'NONE',  ( 60.50000000000000000, 0.0000000000000000000, 0.0000000000000000000 ) ) ;
#280 = CIRCLE ( 'NONE', #24, 5.000000000000000900 ) ;
#281 = PRESENTATION_LAYER_ASSIGNMENT (  '', '', ( #114 ) ) ;
#282 = CARTESIAN_POINT ( 'NONE',  ( 61.05036287906791900, -5.000000000000000900, 6.508195599209877000 ) ) ;
#283 = EDGE_CURVE ( 'NONE', #58, #68, #135, .T. ) ;
#284 = CARTESIAN_POINT ( 'NONE',  ( 62.67718205231717800, -3.610672781986056900, 0.4368237899163006100 ) ) ;
#285 = DIRECTION ( 'NONE',  ( 0.0000000000000000000, 0.0000000000000000000, -1.000000000000000000 ) ) ;
#286 = VERTEX_POINT ( 'NONE', #186 ) ;
#287 = CYLINDRICAL_SURFACE ( 'NONE', #255, 5.000000000000000900 ) ;
#288 = EDGE_LOOP ( 'NONE', ( #315, #133, #220, #179, #294 ) ) ;
#289 = DIRECTION ( 'NONE',  ( 0.0000000000000000000, -0.5773502691896275100, -0.8164965809277248100 ) ) ;
#290 = CARTESIAN_POINT ( 'NONE',  ( 60.80572534407696100, -2.608054847964267300, 2.055042615280876700 ) ) ;
#291 = CARTESIAN_POINT ( 'NONE',  ( 60.64514121369833800, 1.500083646961707800, 2.782394894957551700 ) ) ;
#292 = CARTESIAN_POINT ( 'NONE',  ( 60.75022568326928500, 2.306804921534806300, 2.310530408859393400 ) ) ;
#293 = CARTESIAN_POINT ( 'NONE',  ( 60.58065673791278300, -0.3544822658769744600, 3.064272688459271700 ) ) ;
#294 = ORIENTED_EDGE ( 'NONE', *, *, #283, .F. ) ;
#295 = CARTESIAN_POINT ( 'NONE',  ( 62.00000000000007100, -0.3142963076587670900, -4.500000000000063900 ) ) ;
#296 = AXIS2_PLACEMENT_3D ( 'NONE', #239, #218, #41 ) ;
#297 = CARTESIAN_POINT ( 'NONE',  ( 61.46997507681033600, -3.748936599699019400, -1.341659521287299900 ) ) ;
#298 = CARTESIAN_POINT ( 'NONE',  ( 60.61088977345961100, 2.696799035713691500, 1.556110394659067800 ) ) ;
#299 = ORIENTED_EDGE ( 'NONE', *, *, #211, .T. ) ;
#300 = EDGE_LOOP ( 'NONE', ( #191, #223, #243, #299 ) ) ;
#301 = CARTESIAN_POINT ( 'NONE',  ( 61.27519551237238500, 2.588477665404466800, 2.067226582585687000 ) ) ;
#302 = AXIS2_PLACEMENT_3D ( 'NONE', #250, #27, #137 ) ;
#303 = AXIS2_PLACEMENT_3D ( 'NONE', #312, #66, #289 ) ;
#304 = FACE_OUTER_BOUND ( 'NONE', #260, .T. ) ;
#305 = FACE_OUTER_BOUND ( 'NONE', #300, .T. ) ;
#306 = FILL_AREA_STYLE_COLOUR ( '', #117 ) ;
#307 = SURFACE_STYLE_FILL_AREA ( #167 ) ;
#308 = AXIS2_PLACEMENT_3D ( 'NONE', #178, #42, #155 ) ;
#309 = SHAPE_DEFINITION_REPRESENTATION ( #269, #54 ) ;
#310 = ORIENTED_EDGE ( 'NONE', *, *, #136, .F. ) ;
#311 = CARTESIAN_POINT ( 'NONE',  ( 60.50000000000000000, 2.658212072747451900, 1.390650414841808400 ) ) ;
#312 = CARTESIAN_POINT ( 'NONE',  ( 19.80831014998706900, 12.90611922820185600, -24.80831014998715400 ) ) ;
#313 = PRODUCT_DEFINITION_CONTEXT ( 'detailed design', #56, 'design' ) ;
#314 = ORIENTED_EDGE ( 'NONE', *, *, #192, .T. ) ;
#315 = ORIENTED_EDGE ( 'NONE', *, *, #233, .F. ) ;
#316 = CARTESIAN_POINT ( 'NONE',  ( 60.50000000000000000, 2.658212072747451900, 1.390650414841808400 ) ) ;
#317 = ADVANCED_FACE ( 'NONE', ( #304, #33 ), #251, .T. ) ;
#318 = CARTESIAN_POINT ( 'NONE',  ( 60.85329001194846700, -2.824634067301128800, 1.832952146119573700 ) ) ;
#319 = CARTESIAN_POINT ( 'NONE',  ( 1.000000000000000900, 0.0000000000000000000, 0.0000000000000000000 ) ) ;
#320 = CONICAL_SURFACE ( 'NONE', #1, 4.000000000000000000, 1.047197551196592300 ) ;
#321 = CARTESIAN_POINT ( 'NONE',  ( 60.68384025448847300, -1.849267599155416800, 2.610435430929448000 ) ) ;
#322 = AXIS2_PLACEMENT_3D ( 'NONE', #282, #202, #197 ) ;
#323 = CARTESIAN_POINT ( 'NONE',  ( 30.00000000000000000, 0.0000000000000000000, 4.000000000000000000 ) ) ;
#324 =( NAMED_UNIT ( * ) PLANE_ANGLE_UNIT ( ) SI_UNIT ( $, .RADIAN. ) );
#325 = VECTOR ( 'NONE', #67, 1000.000000000000000 ) ;
#326 = EDGE_LOOP ( 'NONE', ( #78 ) ) ;
#327 = CARTESIAN_POINT ( 'NONE',  ( 60.50000000000000000, 2.658212072747451900, 1.390650414841808400 ) ) ;
#328 = MECHANICAL_DESIGN_GEOMETRIC_PRESENTATION_REPRESENTATION (  '', ( #114 ), #257 ) ;
#329 = CARTESIAN_POINT ( 'NONE',  ( 61.90227909223870700, -2.088453162988679800, -3.887998523494777400 ) ) ;
ENDSEC;
END-ISO-10303-21;
