ISO-10303-21;
HEADER;
FILE_DESCRIPTION (( 'STEP AP214' ),
    '1' );
FILE_NAME ('U10.B09.001.034.STEP',
    '2020-10-01T11:35:08',
    ( '' ),
    ( '' ),
    'SwSTEP 2.0',
    'SolidWorks 2017',
    '' );
FILE_SCHEMA (( 'AUTOMOTIVE_DESIGN' ));
ENDSEC;

DATA;
#1 = ORIENTED_EDGE ( 'NONE', *, *, #94, .T. ) ;
#2 = VECTOR ( 'NONE', #33, 1000.000000000000000 ) ;
#3 = ORIENTED_EDGE ( 'NONE', *, *, #307, .T. ) ;
#4 = PRODUCT ( 'U10.B09.001.034', 'U10.B09.001.034', '', ( #207 ) ) ;
#5 = CARTESIAN_POINT ( 'NONE',  ( 152.0000000000000000, 0.0000000000000000000, 0.0000000000000000000 ) ) ;
#6 = EDGE_CURVE ( 'NONE', #27, #27, #103, .T. ) ;
#7 = DIRECTION ( 'NONE',  ( 0.1956488079738461800, -0.6546536707079769800, -0.7301712917987015500 ) ) ;
#8 = ORIENTED_EDGE ( 'NONE', *, *, #46, .F. ) ;
#9 = CARTESIAN_POINT ( 'NONE',  ( 0.0000000000000000000, 0.0000000000000000000, 0.0000000000000000000 ) ) ;
#10 = DIRECTION ( 'NONE',  ( -1.000000000000000000, -0.0000000000000000000, -0.0000000000000000000 ) ) ;
#11 = CARTESIAN_POINT ( 'NONE',  ( 56.32045303219734900, 4.003842647137072500, -0.8858875447151217700 ) ) ;
#12 = DIRECTION ( 'NONE',  ( 0.0000000000000000000, 0.0000000000000000000, -1.000000000000000000 ) ) ;
#13 = DIRECTION ( 'NONE',  ( -0.9659258262890700900, 0.0000000000000000000, -0.2588190451025139100 ) ) ;
#14 = CARTESIAN_POINT ( 'NONE',  ( 69.00962312084784900, 0.0000000000000000000, -23.19616801377663900 ) ) ;
#15 = DIRECTION ( 'NONE',  ( 0.0000000000000000000, 0.0000000000000000000, 1.000000000000000000 ) ) ;
#16 = EDGE_CURVE ( 'NONE', #75, #75, #170, .T. ) ;
#17 = CARTESIAN_POINT ( 'NONE',  ( 0.0000000000000000000, 0.0000000000000000000, 4.000000000000000000 ) ) ;
#18 = APPLICATION_CONTEXT ( 'automotive_design' ) ;
#19 = ORIENTED_EDGE ( 'NONE', *, *, #6, .T. ) ;
#20 = SURFACE_STYLE_USAGE ( .BOTH. , #42 ) ;
#21 = UNCERTAINTY_MEASURE_WITH_UNIT (LENGTH_MEASURE( 1.000000000000000100E-005 ), #62, 'distance_accuracy_value', 'NONE');
#22 = CARTESIAN_POINT ( 'NONE',  ( 60.57727420408483000, 0.1207606101231682400, 3.078918798593391200 ) ) ;
#23 = CARTESIAN_POINT ( 'NONE',  ( 60.62725409983984500, -1.272491655759854200, 2.860983385858944400 ) ) ;
#24 = CIRCLE ( 'NONE', #314, 5.000000000000000900 ) ;
#25 = EDGE_LOOP ( 'NONE', ( #1, #274, #165 ) ) ;
#26 = EDGE_LOOP ( 'NONE', ( #141 ) ) ;
#27 = VERTEX_POINT ( 'NONE', #282 ) ;
#28 = VERTEX_POINT ( 'NONE', #74 ) ;
#29 = CARTESIAN_POINT ( 'NONE',  ( 64.00000000000000000, 0.0000000000000000000, -4.500000000000151900 ) ) ;
#30 = CARTESIAN_POINT ( 'NONE',  ( 29.42264973081036700, 0.0000000000000000000, 0.0000000000000000000 ) ) ;
#31 = ORIENTED_EDGE ( 'NONE', *, *, #87, .T. ) ;
#32 = PLANE ( 'NONE',  #181 ) ;
#33 = DIRECTION ( 'NONE',  ( 1.000000000000000000, 0.0000000000000000000, 0.0000000000000000000 ) ) ;
#34 = LINE ( 'NONE', #78, #287 ) ;
#35 = DIRECTION ( 'NONE',  ( 1.000000000000000000, -0.0000000000000000000, -0.0000000000000000000 ) ) ;
#36 =( NAMED_UNIT ( * ) PLANE_ANGLE_UNIT ( ) SI_UNIT ( $, .RADIAN. ) );
#37 = CLOSED_SHELL ( 'NONE', ( #318, #153, #130, #71, #275, #234, #224, #126, #297, #257 ) ) ;
#38 = EDGE_CURVE ( 'NONE', #293, #322, #239, .T. ) ;
#39 = CARTESIAN_POINT ( 'NONE',  ( 60.58896096420119200, -0.6664856420742305600, 3.028329126561959800 ) ) ;
#40 = CARTESIAN_POINT ( 'NONE',  ( 60.72015247527672700, -2.115601302099990600, 2.447640350362233700 ) ) ;
#41 = CARTESIAN_POINT ( 'NONE',  ( 61.62636922798865400, -3.483840114206906900, -2.232250766997818700 ) ) ;
#42 = SURFACE_SIDE_STYLE ('',( #231 ) ) ;
#43 = COLOUR_RGB ( '',1.000000000000000000, 1.000000000000000000, 0.5019607843137254800 ) ;
#44 = DIRECTION ( 'NONE',  ( 0.0000000000000000000, 0.0000000000000000000, 1.000000000000000000 ) ) ;
#45 = UNCERTAINTY_MEASURE_WITH_UNIT (LENGTH_MEASURE( 1.000000000000000100E-005 ), #205, 'distance_accuracy_value', 'NONE');
#46 = EDGE_CURVE ( 'NONE', #227, #86, #209, .T. ) ;
#47 = DIRECTION ( 'NONE',  ( 0.7071067811865487900, -0.0000000000000000000, 0.7071067811865463500 ) ) ;
#48 = CARTESIAN_POINT ( 'NONE',  ( 61.96097454186791300, -2.760802624976074900, 3.109746607675405900 ) ) ;
#49 = ORIENTED_EDGE ( 'NONE', *, *, #46, .T. ) ;
#50 = DIRECTION ( 'NONE',  ( 0.0000000000000000000, 0.0000000000000000000, 1.000000000000000000 ) ) ;
#51 = EDGE_CURVE ( 'NONE', #233, #283, #236, .T. ) ;
#52 = CARTESIAN_POINT ( 'NONE',  ( 62.15601211419187400, 2.188123206154627200, 2.381856478377505600 ) ) ;
#53 = VECTOR ( 'NONE', #301, 1000.000000000000000 ) ;
#54 = CARTESIAN_POINT ( 'NONE',  ( 60.59940895082930000, 0.8984031352551562500, 2.983163873525617800 ) ) ;
#55 = DIRECTION ( 'NONE',  ( -0.2588190451025139100, 0.0000000000000000000, 0.9659258262890700900 ) ) ;
#56 = PLANE ( 'NONE',  #128 ) ;
#57 = CARTESIAN_POINT ( 'NONE',  ( 60.79455863630136000, 2.550973990986643800, 2.107194823982272900 ) ) ;
#58 = FACE_BOUND ( 'NONE', #73, .T. ) ;
#59 = ORIENTED_EDGE ( 'NONE', *, *, #38, .T. ) ;
#60 = AXIS2_PLACEMENT_3D ( 'NONE', #106, #183, #44 ) ;
#61 = CARTESIAN_POINT ( 'NONE',  ( 60.67571238530277400, 1.781477926376921800, 2.647152862245605300 ) ) ;
#62 =( LENGTH_UNIT ( ) NAMED_UNIT ( * ) SI_UNIT ( .MILLI., .METRE. ) );
#63 = CARTESIAN_POINT ( 'NONE',  ( 29.42264973081036700, 0.0000000000000000000, 5.000000000000000000 ) ) ;
#64 = ORIENTED_EDGE ( 'NONE', *, *, #280, .T. ) ;
#65 = MECHANICAL_DESIGN_GEOMETRIC_PRESENTATION_REPRESENTATION (  '', ( #162 ), #178 ) ;
#66 = DIRECTION ( 'NONE',  ( 1.000000000000000000, 0.0000000000000000000, 0.0000000000000000000 ) ) ;
#67 = CARTESIAN_POINT ( 'NONE',  ( 61.76295152069292300, -3.006015468894034400, -3.038284821466638300 ) ) ;
#68 = EDGE_CURVE ( 'NONE', #227, #145, #34, .T. ) ;
#69 = FACE_OUTER_BOUND ( 'NONE', #248, .T. ) ;
#70 = ORIENTED_EDGE ( 'NONE', *, *, #6, .F. ) ;
#71 = ADVANCED_FACE ( 'NONE', ( #212, #218 ), #118, .T. ) ;
#72 = APPLICATION_PROTOCOL_DEFINITION ( 'draft international standard', 'automotive_design', 1998, #289 ) ;
#73 = EDGE_LOOP ( 'NONE', ( #19 ) ) ;
#74 = CARTESIAN_POINT ( 'NONE',  ( 62.00000000000006400, 1.957558336305940800E-024, -4.500000000000063100 ) ) ;
#75 = VERTEX_POINT ( 'NONE', #17 ) ;
#76 = SURFACE_STYLE_FILL_AREA ( #320 ) ;
#77 = ORIENTED_EDGE ( 'NONE', *, *, #94, .F. ) ;
#78 = CARTESIAN_POINT ( 'NONE',  ( 63.04653236298901900, -0.7916156215552854200, -0.9416103353023994600 ) ) ;
#79 = EDGE_CURVE ( 'NONE', #210, #210, #122, .T. ) ;
#80 = DIRECTION ( 'NONE',  ( -1.000000000000000000, -0.0000000000000000000, -0.0000000000000000000 ) ) ;
#81 = COLOUR_RGB ( '',1.000000000000000000, 1.000000000000000000, 0.5019607843137254800 ) ;
#82 = EDGE_LOOP ( 'NONE', ( #8, #133, #3, #64 ) ) ;
#83 = DIRECTION ( 'NONE',  ( -0.4999999999999999400, -0.7071067811865465700, 0.5000000000000015500 ) ) ;
#84 = AXIS2_PLACEMENT_3D ( 'NONE', #305, #154, #66 ) ;
#85 = CARTESIAN_POINT ( 'NONE',  ( 60.00000000000000000, 0.0000000000000000000, -0.7112090016593199900 ) ) ;
#86 = VERTEX_POINT ( 'NONE', #249 ) ;
#87 = EDGE_CURVE ( 'NONE', #233, #145, #197, .T. ) ;
#88 = SURFACE_SIDE_STYLE ('',( #76 ) ) ;
#89 = ORIENTED_EDGE ( 'NONE', *, *, #151, .F. ) ;
#90 = CARTESIAN_POINT ( 'NONE',  ( 30.00000000000000000, 0.0000000000000000000, 0.0000000000000000000 ) ) ;
#91 = FILL_AREA_STYLE ('',( #176 ) ) ;
#92 = CYLINDRICAL_SURFACE ( 'NONE', #244, 5.000000000000000900 ) ;
#93 = ORIENTED_EDGE ( 'NONE', *, *, #87, .F. ) ;
#94 = EDGE_CURVE ( 'NONE', #322, #233, #270, .T. ) ;
#95 = CARTESIAN_POINT ( 'NONE',  ( 61.93850103931801200, -1.674650794079774400, -4.113436905508371500 ) ) ;
#96 = CARTESIAN_POINT ( 'NONE',  ( 60.64010465569835900, -1.421179379807836000, 2.804431791951199400 ) ) ;
#97 = EDGE_CURVE ( 'NONE', #217, #217, #24, .T. ) ;
#98 = CARTESIAN_POINT ( 'NONE',  ( 60.68384025448847300, -1.849267599155416800, 2.610435430929448000 ) ) ;
#99 = FACE_OUTER_BOUND ( 'NONE', #303, .T. ) ;
#100 = CARTESIAN_POINT ( 'NONE',  ( 61.87286309859340600, -2.341955460666069300, -3.706073061403206500 ) ) ;
#101 = B_SPLINE_CURVE_WITH_KNOTS ( 'NONE', 3,
 ( #216, #57, #146, #61, #253, #54, #285, #22, #131, #155, #39, #229, #23, #96, #98, #40, #226, #223, #179, #284, #125, #228, #260, #127, #152, #204, #325, #261, #230, #41, #202, #67, #259, #100, #129, #95, #281, #308, #286, #255, #323, #306 ),
 .UNSPECIFIED., .F., .F.,
 ( 4, 2, 2, 2, 2, 1, 2, 2, 2, 2, 2, 1, 2, 2, 2, 2, 2, 2, 2, 2, 2, 4 ),
 ( 0.0007173214470679095300, 0.001657478997353969100, 0.002597636547640028800, 0.003537794097926088200, 0.004007872873069117900, 0.004477951648212148000, 0.004948030423355178100, 0.005418109198498208300, 0.006358266748784268500, 0.007298424299070329700, 0.007768503074213359800, 0.008238581849356389100, 0.008708660624499420900, 0.009178739399642449300, 0.01011889694992851000, 0.01105905450021457000, 0.01199921205050062700, 0.01293936960078668700, 0.01387952715107274700, 0.01434960592621577600, 0.01481968470135880700, 0.01575984225164486800 ),
 .UNSPECIFIED. ) ;
#102 = ORIENTED_EDGE ( 'NONE', *, *, #79, .T. ) ;
#103 = CIRCLE ( 'NONE', #60, 4.000000000000000000 ) ;
#104 = EDGE_LOOP ( 'NONE', ( #189 ) ) ;
#105 = DIRECTION ( 'NONE',  ( -1.000000000000000000, -0.0000000000000000000, -0.0000000000000000000 ) ) ;
#106 = CARTESIAN_POINT ( 'NONE',  ( 30.00000000000000000, 0.0000000000000000000, 0.0000000000000000000 ) ) ;
#107 = FACE_OUTER_BOUND ( 'NONE', #291, .T. ) ;
#108 = UNCERTAINTY_MEASURE_WITH_UNIT (LENGTH_MEASURE( 1.000000000000000100E-005 ), #121, 'distance_accuracy_value', 'NONE');
#109 = CARTESIAN_POINT ( 'NONE',  ( 62.67718205231717800, -3.610672781986056900, 0.4368237899163006100 ) ) ;
#110 = ORIENTED_EDGE ( 'NONE', *, *, #51, .F. ) ;
#111 = ORIENTED_EDGE ( 'NONE', *, *, #280, .F. ) ;
#112 = DIRECTION ( 'NONE',  ( -1.000000000000000000, -0.0000000000000000000, -0.0000000000000000000 ) ) ;
#113 = AXIS2_PLACEMENT_3D ( 'NONE', #312, #105, #159 ) ;
#114 = CARTESIAN_POINT ( 'NONE',  ( 63.39338956276642300, -4.460542938996039400, -2.236099027842803000 ) ) ;
#115 = AXIS2_PLACEMENT_3D ( 'NONE', #30, #10, #271 ) ;
#116 = CARTESIAN_POINT ( 'NONE',  ( 57.49999999999999300, 0.0000000000000000000, 0.0000000000000000000 ) ) ;
#117 = CONICAL_SURFACE ( 'NONE', #194, 4.000000000000000000, 1.047197551196592300 ) ;
#118 = TOROIDAL_SURFACE ( 'NONE', #267, 4.000000000000000000, 1.000000000000000400 ) ;
#119 = DIRECTION ( 'NONE',  ( 0.0000000000000000000, 0.0000000000000000000, 1.000000000000000000 ) ) ;
#120 = PRESENTATION_LAYER_ASSIGNMENT (  '', '', ( #290 ) ) ;
#121 =( LENGTH_UNIT ( ) NAMED_UNIT ( * ) SI_UNIT ( .MILLI., .METRE. ) );
#122 = CIRCLE ( 'NONE', #115, 5.000000000000000000 ) ;
#123 = SURFACE_STYLE_USAGE ( .BOTH. , #88 ) ;
#124 = ORIENTED_EDGE ( 'NONE', *, *, #307, .F. ) ;
#125 = CARTESIAN_POINT ( 'NONE',  ( 61.01248908741060700, -3.351220495165067300, 1.063183800920901600 ) ) ;
#126 = ADVANCED_FACE ( 'NONE', ( #107 ), #32, .F. ) ;
#127 = CARTESIAN_POINT ( 'NONE',  ( 61.18341026472683800, -3.681209338665903300, 0.1985688862108037600 ) ) ;
#128 = AXIS2_PLACEMENT_3D ( 'NONE', #143, #13, #55 ) ;
#129 = CARTESIAN_POINT ( 'NONE',  ( 61.90227909223870700, -2.088453162988679800, -3.887998523494777400 ) ) ;
#130 = ADVANCED_FACE ( 'NONE', ( #251 ), #294, .F. ) ;
#131 = CARTESIAN_POINT ( 'NONE',  ( 60.57686679181047400, -0.03879160662540481100, 3.080679034728019100 ) ) ;
#132 = EDGE_CURVE ( 'NONE', #227, #293, #187, .T. ) ;
#133 = ORIENTED_EDGE ( 'NONE', *, *, #132, .T. ) ;
#134 =( GEOMETRIC_REPRESENTATION_CONTEXT ( 3 ) GLOBAL_UNCERTAINTY_ASSIGNED_CONTEXT ( ( #45 ) ) GLOBAL_UNIT_ASSIGNED_CONTEXT ( ( #205, #36, #149 ) ) REPRESENTATION_CONTEXT ( 'NONE', 'WORKASPACE' ) );
#135 = PRESENTATION_STYLE_ASSIGNMENT (( #20 ) ) ;
#136 = LINE ( 'NONE', #14, #150 ) ;
#137 = ORIENTED_EDGE ( 'NONE', *, *, #132, .F. ) ;
#138 = CARTESIAN_POINT ( 'NONE',  ( 55.98576721895450000, 2.640940801553608900, -3.148007632165429100 ) ) ;
#139 = CARTESIAN_POINT ( 'NONE',  ( 28.93431457505064900, 0.0000000000000000000, -33.93431457505076300 ) ) ;
#140 = CARTESIAN_POINT ( 'NONE',  ( 59.84722674841004400, 0.0000000000000000000, -3.021402401691474400 ) ) ;
#141 = ORIENTED_EDGE ( 'NONE', *, *, #16, .T. ) ;
#142 = CARTESIAN_POINT ( 'NONE',  ( 60.84261565548818100, 2.762910027254079600, 1.881331337545974800 ) ) ;
#143 = CARTESIAN_POINT ( 'NONE',  ( 61.05036287906791900, -5.000000000000000900, 6.508195599209877000 ) ) ;
#144 = DIRECTION ( 'NONE',  ( 1.000000000000000000, 0.0000000000000000000, 0.0000000000000000000 ) ) ;
#145 = VERTEX_POINT ( 'NONE', #215 ) ;
#146 = CARTESIAN_POINT ( 'NONE',  ( 60.75022568326928500, 2.306804921534806300, 2.310530408859393400 ) ) ;
#147 = CARTESIAN_POINT ( 'NONE',  ( -79.66162912480135100, 0.0000000000000000000, -4.500000000000000000 ) ) ;
#148 = PRODUCT_RELATED_PRODUCT_CATEGORY ( 'part', '', ( #4 ) ) ;
#149 =( NAMED_UNIT ( * ) SI_UNIT ( $, .STERADIAN. ) SOLID_ANGLE_UNIT ( ) );
#150 = VECTOR ( 'NONE', #195, 1000.000000000000100 ) ;
#151 = EDGE_CURVE ( 'NONE', #283, #28, #246, .T. ) ;
#152 = CARTESIAN_POINT ( 'NONE',  ( 61.21285455262748300, -3.715686381446755800, 0.04546705774718355600 ) ) ;
#153 = ADVANCED_FACE ( 'NONE', ( #232 ), #277, .F. ) ;
#154 = DIRECTION ( 'NONE',  ( 0.0000000000000000000, 0.0000000000000000000, 1.000000000000000000 ) ) ;
#155 = CARTESIAN_POINT ( 'NONE',  ( 60.58065673791278300, -0.3544822658769744600, 3.064272688459271700 ) ) ;
#156 = FACE_BOUND ( 'NONE', #25, .T. ) ;
#157 = EDGE_LOOP ( 'NONE', ( #199 ) ) ;
#158 = PRODUCT_DEFINITION_FORMATION_WITH_SPECIFIED_SOURCE ( 'ANY', '', #4, .NOT_KNOWN. ) ;
#159 = DIRECTION ( 'NONE',  ( 0.0000000000000000000, 0.0000000000000000000, 1.000000000000000000 ) ) ;
#160 = FACE_OUTER_BOUND ( 'NONE', #214, .T. ) ;
#161 = EDGE_LOOP ( 'NONE', ( #279 ) ) ;
#162 = STYLED_ITEM ( 'NONE', ( #329 ), #177 ) ;
#163 = CARTESIAN_POINT ( 'NONE',  ( 28.93431457505064900, 0.0000000000000000000, -33.93431457505076300 ) ) ;
#164 = FACE_OUTER_BOUND ( 'NONE', #300, .T. ) ;
#165 = ORIENTED_EDGE ( 'NONE', *, *, #240, .T. ) ;
#166 = CARTESIAN_POINT ( 'NONE',  ( 62.15601211419187400, 2.188123206154627200, 2.381856478377505600 ) ) ;
#167 = CARTESIAN_POINT ( 'NONE',  ( 60.50000000000000000, 0.0000000000000000000, 0.0000000000000000000 ) ) ;
#168 =( NAMED_UNIT ( * ) PLANE_ANGLE_UNIT ( ) SI_UNIT ( $, .RADIAN. ) );
#169 = CYLINDRICAL_SURFACE ( 'NONE', #273, 3.788790998340742600 ) ;
#170 = CIRCLE ( 'NONE', #113, 4.000000000000000000 ) ;
#171 = DIRECTION ( 'NONE',  ( 0.0000000000000000000, 0.0000000000000000000, 1.000000000000000000 ) ) ;
#172 = CARTESIAN_POINT ( 'NONE',  ( 19.80831014998706900, 12.90611922820185600, -24.80831014998715400 ) ) ;
#173 = DIRECTION ( 'NONE',  ( -1.000000000000000000, -0.0000000000000000000, -0.0000000000000000000 ) ) ;
#174 = AXIS2_PLACEMENT_3D ( 'NONE', #9, #191, #188 ) ;
#175 = DIRECTION ( 'NONE',  ( 0.0000000000000000000, 0.0000000000000000000, -1.000000000000000000 ) ) ;
#176 = FILL_AREA_STYLE_COLOUR ( '', #81 ) ;
#177 = MANIFOLD_SOLID_BREP ( 'Schnitt-Linear austragen3', #37 ) ;
#178 =( GEOMETRIC_REPRESENTATION_CONTEXT ( 3 ) GLOBAL_UNCERTAINTY_ASSIGNED_CONTEXT ( ( #108 ) ) GLOBAL_UNIT_ASSIGNED_CONTEXT ( ( #121, #168, #220 ) ) REPRESENTATION_CONTEXT ( 'NONE', 'WORKASPACE' ) );
#179 = CARTESIAN_POINT ( 'NONE',  ( 60.93063899264427600, -3.106986944224507900, 1.462650110669667400 ) ) ;
#180 = VECTOR ( 'NONE', #213, 1000.000000000000200 ) ;
#181 = AXIS2_PLACEMENT_3D ( 'NONE', #139, #316, #313 ) ;
#182 = ORIENTED_EDGE ( 'NONE', *, *, #151, .T. ) ;
#183 = DIRECTION ( 'NONE',  ( -1.000000000000000000, -0.0000000000000000000, -0.0000000000000000000 ) ) ;
#184 = CARTESIAN_POINT ( 'NONE',  ( 60.72542248836250400, 2.731334091948638900, 1.719483054466736100 ) ) ;
#185 = FACE_OUTER_BOUND ( 'NONE', #82, .T. ) ;
#186 = AXIS2_PLACEMENT_3D ( 'NONE', #172, #83, #319 ) ;
#187 =( BOUNDED_CURVE ( )  B_SPLINE_CURVE ( 3, ( #52, #211, #296, #142 ),
 .UNSPECIFIED., .F., .F. ) 
 B_SPLINE_CURVE_WITH_KNOTS ( ( 4, 4 ),
 ( 1.571010888368773900, 1.772516448662149900 ),
 .UNSPECIFIED. ) 
 CURVE ( )  GEOMETRIC_REPRESENTATION_ITEM ( )  RATIONAL_B_SPLINE_CURVE ( ( 1.000000000000000000, 0.9966191538317661400, 0.9966191538317661400, 1.000000000000000000 ) ) 
 REPRESENTATION_ITEM ( '' )  );
#188 = DIRECTION ( 'NONE',  ( 0.0000000000000000000, 0.0000000000000000000, -1.000000000000000000 ) ) ;
#189 = ORIENTED_EDGE ( 'NONE', *, *, #97, .T. ) ;
#190 = DIRECTION ( 'NONE',  ( 0.0000000000000000000, 0.0000000000000000000, 1.000000000000000000 ) ) ;
#191 = DIRECTION ( 'NONE',  ( 1.000000000000000000, 0.0000000000000000000, 0.0000000000000000000 ) ) ;
#192 = CARTESIAN_POINT ( 'NONE',  ( 62.00000000000000000, 0.0000000000000000000, 0.0000000000000000000 ) ) ;
#193 = DIRECTION ( 'NONE',  ( -1.000000000000000000, -0.0000000000000000000, -0.0000000000000000000 ) ) ;
#194 = AXIS2_PLACEMENT_3D ( 'NONE', #90, #299, #171 ) ;
#195 = DIRECTION ( 'NONE',  ( 0.2588190451025139100, 0.0000000000000000000, -0.9659258262890700900 ) ) ;
#196 = CARTESIAN_POINT ( 'NONE',  ( 60.50000000000000000, 0.0000000000000000000, -2.999999999999997300 ) ) ;
#197 = LINE ( 'NONE', #163, #311 ) ;
#198 = CARTESIAN_POINT ( 'NONE',  ( 60.84261565548818100, 2.762910027254079600, 1.881331337545974800 ) ) ;
#199 = ORIENTED_EDGE ( 'NONE', *, *, #16, .F. ) ;
#200 = CARTESIAN_POINT ( 'NONE',  ( 1.000000000000000900, 0.0000000000000000000, 5.000000000000000900 ) ) ;
#201 = APPLICATION_PROTOCOL_DEFINITION ( 'draft international standard', 'automotive_design', 1998, #18 ) ;
#202 = CARTESIAN_POINT ( 'NONE',  ( 61.67518698462789200, -3.344877362189310400, -2.517643695268697400 ) ) ;
#203 = CONICAL_SURFACE ( 'NONE', #235, 3.000000000000000000, 0.03277514440407577200 ) ;
#204 = CARTESIAN_POINT ( 'NONE',  ( 61.29996338442629900, -3.789683327265669400, -0.4128394852666504900 ) ) ;
#205 =( LENGTH_UNIT ( ) NAMED_UNIT ( * ) SI_UNIT ( .MILLI., .METRE. ) );
#206 = ORIENTED_EDGE ( 'NONE', *, *, #247, .T. ) ;
#207 = PRODUCT_CONTEXT ( 'NONE', #18, 'mechanical' ) ;
#208 = SHAPE_DEFINITION_REPRESENTATION ( #222, #328 ) ;
#209 =( BOUNDED_CURVE ( )  B_SPLINE_CURVE ( 3, ( #166, #272, #48, #109, #114, #245, #29 ),
 .UNSPECIFIED., .F., .T. ) 
 B_SPLINE_CURVE_WITH_KNOTS ( ( 4, 3, 4 ),
 ( 2.525898383345526600, 4.404541845262556900, 6.283185307179586200 ),
 .UNSPECIFIED. ) 
 CURVE ( )  GEOMETRIC_REPRESENTATION_ITEM ( )  RATIONAL_B_SPLINE_CURVE ( ( 1.000000000000000000, 0.7268904206547643900, 0.7268904206547643900, 1.000000000000000000, 0.7268904206547646100, 0.7268904206547646100, 1.000000000000000000 ) ) 
 REPRESENTATION_ITEM ( '' )  );
#210 = VERTEX_POINT ( 'NONE', #63 ) ;
#211 = CARTESIAN_POINT ( 'NONE',  ( 61.71447948347074000, 2.396232105707454300, 2.234634275854517200 ) ) ;
#212 = FACE_OUTER_BOUND ( 'NONE', #157, .T. ) ;
#213 = DIRECTION ( 'NONE',  ( 0.9994629430332292500, 0.0000000000000000000, 0.03276927682076161800 ) ) ;
#214 = EDGE_LOOP ( 'NONE', ( #70 ) ) ;
#215 = CARTESIAN_POINT ( 'NONE',  ( 62.80995131309849500, 0.0000000000000000000, -0.05867783700302074700 ) ) ;
#216 = CARTESIAN_POINT ( 'NONE',  ( 60.84261565548818100, 2.762910027254079600, 1.881331337545974800 ) ) ;
#217 = VERTEX_POINT ( 'NONE', #200 ) ;
#218 = FACE_OUTER_BOUND ( 'NONE', #104, .T. ) ;
#219 = EDGE_LOOP ( 'NONE', ( #137, #315, #93, #77, #309 ) ) ;
#220 =( NAMED_UNIT ( * ) SI_UNIT ( $, .STERADIAN. ) SOLID_ANGLE_UNIT ( ) );
#221 = DIRECTION ( 'NONE',  ( -1.000000000000000000, -0.0000000000000000000, -0.0000000000000000000 ) ) ;
#222 = PRODUCT_DEFINITION_SHAPE ( 'NONE', 'NONE',  #263 ) ;
#223 = CARTESIAN_POINT ( 'NONE',  ( 60.85329001194846700, -2.824634067301128800, 1.832952146119573700 ) ) ;
#224 = ADVANCED_FACE ( 'NONE', ( #160, #156 ), #203, .T. ) ;
#225 = CONICAL_SURFACE ( 'NONE', #238, 4.500000000000000000, 0.7853981633974477200 ) ;
#226 = CARTESIAN_POINT ( 'NONE',  ( 60.80572534407696100, -2.608054847964267300, 2.055042615280876700 ) ) ;
#227 = VERTEX_POINT ( 'NONE', #298 ) ;
#228 = CARTESIAN_POINT ( 'NONE',  ( 61.06820344643695400, -3.490195270335973500, 0.7869948886833377800 ) ) ;
#229 = CARTESIAN_POINT ( 'NONE',  ( 60.60594728028231500, -0.9713153127463064500, 2.954352351073223500 ) ) ;
#230 = CARTESIAN_POINT ( 'NONE',  ( 61.52418622107300900, -3.684494704224701200, -1.646734932781162900 ) ) ;
#231 = SURFACE_STYLE_FILL_AREA ( #91 ) ;
#232 = FACE_OUTER_BOUND ( 'NONE', #219, .T. ) ;
#233 = VERTEX_POINT ( 'NONE', #321 ) ;
#234 = ADVANCED_FACE ( 'NONE', ( #164, #58 ), #117, .T. ) ;
#235 = AXIS2_PLACEMENT_3D ( 'NONE', #278, #193, #250 ) ;
#236 = LINE ( 'NONE', #5, #180 ) ;
#237 = ORIENTED_EDGE ( 'NONE', *, *, #240, .F. ) ;
#238 = AXIS2_PLACEMENT_3D ( 'NONE', #192, #144, #175 ) ;
#239 = B_SPLINE_CURVE_WITH_KNOTS ( 'NONE', 3,
 ( #292, #184, #310, #266 ),
 .UNSPECIFIED., .F., .F.,
 ( 4, 4 ),
 ( 0.001893023902374085100, 0.002499601545745645500 ),
 .UNSPECIFIED. ) ;
#240 = EDGE_CURVE ( 'NONE', #283, #322, #241, .T. ) ;
#241 = CIRCLE ( 'NONE', #256, 3.000000000000000000 ) ;
#242 = ORIENTED_EDGE ( 'NONE', *, *, #79, .F. ) ;
#243 = CARTESIAN_POINT ( 'NONE',  ( 1.000000000000000900, 0.0000000000000000000, 0.0000000000000000000 ) ) ;
#244 = AXIS2_PLACEMENT_3D ( 'NONE', #252, #221, #15 ) ;
#245 = CARTESIAN_POINT ( 'NONE',  ( 63.99999999999997200, -2.804780860151722300, -4.500000000000063900 ) ) ;
#246 = LINE ( 'NONE', #116, #53 ) ;
#247 = EDGE_CURVE ( 'NONE', #145, #86, #136, .T. ) ;
#248 = EDGE_LOOP ( 'NONE', ( #124, #59, #237, #182 ) ) ;
#249 = CARTESIAN_POINT ( 'NONE',  ( 64.00000000000000000, 0.0000000000000000000, -4.500000000000151900 ) ) ;
#250 = DIRECTION ( 'NONE',  ( 0.0000000000000000000, 0.0000000000000000000, 1.000000000000000000 ) ) ;
#251 = FACE_OUTER_BOUND ( 'NONE', #26, .T. ) ;
#252 = CARTESIAN_POINT ( 'NONE',  ( -79.66162912480135100, 0.0000000000000000000, 0.0000000000000000000 ) ) ;
#253 = CARTESIAN_POINT ( 'NONE',  ( 60.64514121369833800, 1.500083646961707800, 2.782394894957551700 ) ) ;
#254 = ORIENTED_EDGE ( 'NONE', *, *, #247, .F. ) ;
#255 = CARTESIAN_POINT ( 'NONE',  ( 61.99367692460366900, -0.6326506117241226200, -4.459914354993485700 ) ) ;
#256 = AXIS2_PLACEMENT_3D ( 'NONE', #167, #173, #119 ) ;
#257 = ADVANCED_FACE ( 'NONE', ( #99 ), #56, .F. ) ;
#258 =( NAMED_UNIT ( * ) SI_UNIT ( $, .STERADIAN. ) SOLID_ANGLE_UNIT ( ) );
#259 = CARTESIAN_POINT ( 'NONE',  ( 61.80278743037438700, -2.803949449588303300, -3.278665642041531700 ) ) ;
#260 = CARTESIAN_POINT ( 'NONE',  ( 61.12543951784233800, -3.594520562695403800, 0.4964415788888813000 ) ) ;
#261 = CARTESIAN_POINT ( 'NONE',  ( 61.46997507681033600, -3.748936599699019400, -1.341659521287299900 ) ) ;
#262 = PRODUCT_DEFINITION_CONTEXT ( 'detailed design', #289, 'design' ) ;
#263 = PRODUCT_DEFINITION ( 'UNKNOWN', '', #158, #262 ) ;
#264 = LINE ( 'NONE', #147, #2 ) ;
#265 =( GEOMETRIC_REPRESENTATION_CONTEXT ( 3 ) GLOBAL_UNCERTAINTY_ASSIGNED_CONTEXT ( ( #21 ) ) GLOBAL_UNIT_ASSIGNED_CONTEXT ( ( #62, #324, #258 ) ) REPRESENTATION_CONTEXT ( 'NONE', 'WORKASPACE' ) );
#266 = CARTESIAN_POINT ( 'NONE',  ( 60.50000000000000000, 2.658212072747451900, 1.390650414841808400 ) ) ;
#267 = AXIS2_PLACEMENT_3D ( 'NONE', #269, #112, #190 ) ;
#268 = FACE_OUTER_BOUND ( 'NONE', #161, .T. ) ;
#269 = CARTESIAN_POINT ( 'NONE',  ( 1.000000000000000900, 0.0000000000000000000, 0.0000000000000000000 ) ) ;
#270 =( BOUNDED_CURVE ( )  B_SPLINE_CURVE ( 3, ( #317, #11, #138, #140 ),
 .UNSPECIFIED., .F., .F. ) 
 B_SPLINE_CURVE_WITH_KNOTS ( ( 4, 4 ),
 ( 5.134469254567477500, 7.285672331738373600 ),
 .UNSPECIFIED. ) 
 CURVE ( )  GEOMETRIC_REPRESENTATION_ITEM ( )  RATIONAL_B_SPLINE_CURVE ( ( 1.000000000000000000, 0.6501353665248634800, 0.6501353665248634800, 1.000000000000000000 ) ) 
 REPRESENTATION_ITEM ( '' )  );
#271 = DIRECTION ( 'NONE',  ( 0.0000000000000000000, 0.0000000000000000000, 1.000000000000000000 ) ) ;
#272 = CARTESIAN_POINT ( 'NONE',  ( 61.72197935391105300, -0.1016232753489900700, 4.001688791894944000 ) ) ;
#273 = AXIS2_PLACEMENT_3D ( 'NONE', #85, #35, #12 ) ;
#274 = ORIENTED_EDGE ( 'NONE', *, *, #51, .T. ) ;
#275 = ADVANCED_FACE ( 'NONE', ( #268, #326 ), #92, .T. ) ;
#276 = PRESENTATION_LAYER_ASSIGNMENT (  '', '', ( #162 ) ) ;
#277 = PLANE ( 'NONE',  #186 ) ;
#278 = CARTESIAN_POINT ( 'NONE',  ( 60.50000000000000000, 0.0000000000000000000, 0.0000000000000000000 ) ) ;
#279 = ORIENTED_EDGE ( 'NONE', *, *, #97, .F. ) ;
#280 = EDGE_CURVE ( 'NONE', #28, #86, #264, .T. ) ;
#281 = CARTESIAN_POINT ( 'NONE',  ( 61.94928344345606800, -1.530126050132633000, -4.180852665103666200 ) ) ;
#282 = CARTESIAN_POINT ( 'NONE',  ( 30.00000000000000000, 0.0000000000000000000, 4.000000000000000000 ) ) ;
#283 = VERTEX_POINT ( 'NONE', #196 ) ;
#284 = CARTESIAN_POINT ( 'NONE',  ( 60.95762987200410500, -3.194436981254661100, 1.332004398320107300 ) ) ;
#285 = CARTESIAN_POINT ( 'NONE',  ( 60.58525213694798600, 0.5911201694151532200, 3.044369878727845300 ) ) ;
#286 = CARTESIAN_POINT ( 'NONE',  ( 61.97525402701943900, -1.087900591397707600, -4.343829939869800100 ) ) ;
#287 = VECTOR ( 'NONE', #7, 1000.000000000000100 ) ;
#288 = ORIENTED_EDGE ( 'NONE', *, *, #68, .F. ) ;
#289 = APPLICATION_CONTEXT ( 'automotive_design' ) ;
#290 = STYLED_ITEM ( 'NONE', ( #135 ), #328 ) ;
#291 = EDGE_LOOP ( 'NONE', ( #31, #206, #111, #89, #110 ) ) ;
#292 = CARTESIAN_POINT ( 'NONE',  ( 60.84261565548818100, 2.762910027254079600, 1.881331337545974800 ) ) ;
#293 = VERTEX_POINT ( 'NONE', #198 ) ;
#294 = PLANE ( 'NONE',  #174 ) ;
#295 = EDGE_LOOP ( 'NONE', ( #102 ) ) ;
#296 = CARTESIAN_POINT ( 'NONE',  ( 61.27519551237238500, 2.588477665404466800, 2.067226582585687000 ) ) ;
#297 = ADVANCED_FACE ( 'NONE', ( #185 ), #169, .T. ) ;
#298 = CARTESIAN_POINT ( 'NONE',  ( 62.15601211419187400, 2.188123206154627200, 2.381856478377505600 ) ) ;
#299 = DIRECTION ( 'NONE',  ( -1.000000000000000000, -0.0000000000000000000, -0.0000000000000000000 ) ) ;
#300 = EDGE_LOOP ( 'NONE', ( #242 ) ) ;
#301 = DIRECTION ( 'NONE',  ( 0.7071067811865479100, 0.0000000000000000000, -0.7071067811865471300 ) ) ;
#302 = FILL_AREA_STYLE_COLOUR ( '', #43 ) ;
#303 = EDGE_LOOP ( 'NONE', ( #49, #254, #288 ) ) ;
#304 = MECHANICAL_DESIGN_GEOMETRIC_PRESENTATION_REPRESENTATION (  '', ( #290 ), #265 ) ;
#305 = CARTESIAN_POINT ( 'NONE',  ( 0.0000000000000000000, 0.0000000000000000000, 0.0000000000000000000 ) ) ;
#306 = CARTESIAN_POINT ( 'NONE',  ( 62.00000000000006400, 1.957558336305940800E-024, -4.500000000000063100 ) ) ;
#307 = EDGE_CURVE ( 'NONE', #293, #28, #101, .T. ) ;
#308 = CARTESIAN_POINT ( 'NONE',  ( 61.96762193624638800, -1.237061939571886000, -4.295813671387437100 ) ) ;
#309 = ORIENTED_EDGE ( 'NONE', *, *, #38, .F. ) ;
#310 = CARTESIAN_POINT ( 'NONE',  ( 60.61088977345961100, 2.696799035713691500, 1.556110394659067800 ) ) ;
#311 = VECTOR ( 'NONE', #47, 1000.000000000000000 ) ;
#312 = CARTESIAN_POINT ( 'NONE',  ( 0.0000000000000000000, 0.0000000000000000000, 0.0000000000000000000 ) ) ;
#313 = DIRECTION ( 'NONE',  ( 0.0000000000000000000, 0.0000000000000000000, -1.000000000000000000 ) ) ;
#314 = AXIS2_PLACEMENT_3D ( 'NONE', #243, #80, #50 ) ;
#315 = ORIENTED_EDGE ( 'NONE', *, *, #68, .T. ) ;
#316 = DIRECTION ( 'NONE',  ( 0.0000000000000000000, -1.000000000000000000, 0.0000000000000000000 ) ) ;
#317 = CARTESIAN_POINT ( 'NONE',  ( 60.50000000000000000, 2.658212072747451900, 1.390650414841808400 ) ) ;
#318 = ADVANCED_FACE ( 'NONE', ( #69 ), #225, .T. ) ;
#319 = DIRECTION ( 'NONE',  ( 0.0000000000000000000, -0.5773502691896275100, -0.8164965809277248100 ) ) ;
#320 = FILL_AREA_STYLE ('',( #302 ) ) ;
#321 = CARTESIAN_POINT ( 'NONE',  ( 59.84722674841004400, 0.0000000000000000000, -3.021402401691474400 ) ) ;
#322 = VERTEX_POINT ( 'NONE', #327 ) ;
#323 = CARTESIAN_POINT ( 'NONE',  ( 62.00000000000007100, -0.3142963076587670900, -4.500000000000063900 ) ) ;
#324 =( NAMED_UNIT ( * ) PLANE_ANGLE_UNIT ( ) SI_UNIT ( $, .RADIAN. ) );
#325 = CARTESIAN_POINT ( 'NONE',  ( 61.35714834193473900, -3.801565641135719300, -0.7208091265756111400 ) ) ;
#326 = FACE_OUTER_BOUND ( 'NONE', #295, .T. ) ;
#327 = CARTESIAN_POINT ( 'NONE',  ( 60.50000000000000000, 2.658212072747451900, 1.390650414841808400 ) ) ;
#328 = ADVANCED_BREP_SHAPE_REPRESENTATION ( 'U10.B09.001.034', ( #177, #84 ), #134 ) ;
#329 = PRESENTATION_STYLE_ASSIGNMENT (( #123 ) ) ;
ENDSEC;
END-ISO-10303-21;
