ISO-10303-21;
HEADER;
FILE_DESCRIPTION (( 'STEP AP214' ),
    '1' );
FILE_NAME ('U10.B07.001.031.STEP',
    '2020-10-01T11:35:18',
    ( '' ),
    ( '' ),
    'SwSTEP 2.0',
    'SolidWorks 2017',
    '' );
FILE_SCHEMA (( 'AUTOMOTIVE_DESIGN' ));
ENDSEC;

DATA;
#1 = VERTEX_POINT ( 'NONE', #307 ) ;
#2 = CARTESIAN_POINT ( 'NONE',  ( 58.00000000000006400, -1.656607900964124800E-026, -3.500000000000070200 ) ) ;
#3 = EDGE_LOOP ( 'NONE', ( #204, #134, #172, #312, #279 ) ) ;
#4 = FACE_OUTER_BOUND ( 'NONE', #189, .T. ) ;
#5 = CARTESIAN_POINT ( 'NONE',  ( 57.56831207149903700, -5.000000000000000900, 5.575182897317681400 ) ) ;
#6 = FILL_AREA_STYLE_COLOUR ( '', #218 ) ;
#7 = FACE_OUTER_BOUND ( 'NONE', #64, .T. ) ;
#8 = ORIENTED_EDGE ( 'NONE', *, *, #209, .F. ) ;
#9 = CARTESIAN_POINT ( 'NONE',  ( 28.99999999999999600, 0.0000000000000000000, 0.0000000000000000000 ) ) ;
#10 = SHAPE_DEFINITION_REPRESENTATION ( #245, #198 ) ;
#11 = ORIENTED_EDGE ( 'NONE', *, *, #262, .F. ) ;
#12 = EDGE_CURVE ( 'NONE', #137, #86, #301, .T. ) ;
#13 = LINE ( 'NONE', #127, #237 ) ;
#14 = VECTOR ( 'NONE', #78, 1000.000000000000000 ) ;
#15 = CARTESIAN_POINT ( 'NONE',  ( 57.97970485519733300, -0.9981760622953608200, -3.343060103122454500 ) ) ;
#16 =( BOUNDED_CURVE ( )  B_SPLINE_CURVE ( 3, ( #170, #148, #96, #196, #41, #70, #121 ),
 .UNSPECIFIED., .F., .F. ) 
 B_SPLINE_CURVE_WITH_KNOTS ( ( 4, 3, 4 ),
 ( 2.543359206007193700, 4.413272256593390200, 6.283185307179586200 ),
 .UNSPECIFIED. ) 
 CURVE ( )  GEOMETRIC_REPRESENTATION_ITEM ( )  RATIONAL_B_SPLINE_CURVE ( ( 1.000000000000000000, 0.7292356036813159000, 0.7292356036813159000, 1.000000000000000000, 0.7292356036813159000, 0.7292356036813159000, 1.000000000000000000 ) ) 
 REPRESENTATION_ITEM ( '' )  );
#17 = EDGE_LOOP ( 'NONE', ( #231, #241, #8, #108 ) ) ;
#18 = CARTESIAN_POINT ( 'NONE',  ( 57.11094645188485000, -0.7407895272395886900, 2.516496884475095500 ) ) ;
#19 = CARTESIAN_POINT ( 'NONE',  ( 56.99999999999999300, 2.182939499724767500, 1.218513496249170600 ) ) ;
#20 = CARTESIAN_POINT ( 'NONE',  ( 53.11378317441757700, 2.227917314591800800, -2.604095093542381400 ) ) ;
#21 = DIRECTION ( 'NONE',  ( 1.000000000000000000, -0.0000000000000000000, -0.0000000000000000000 ) ) ;
#22 = CARTESIAN_POINT ( 'NONE',  ( 28.99999999999999600, 0.0000000000000000000, 0.0000000000000000000 ) ) ;
#23 = MECHANICAL_DESIGN_GEOMETRIC_PRESENTATION_REPRESENTATION (  '', ( #145 ), #58 ) ;
#24 = DIRECTION ( 'NONE',  ( -0.4999999999999996700, -0.7071067811865469100, 0.5000000000000013300 ) ) ;
#25 = DIRECTION ( 'NONE',  ( 1.000000000000000000, 0.0000000000000000000, 0.0000000000000000000 ) ) ;
#26 = VERTEX_POINT ( 'NONE', #322 ) ;
#27 = CARTESIAN_POINT ( 'NONE',  ( -79.66162912480135100, 0.0000000000000000000, 0.0000000000000000000 ) ) ;
#28 = AXIS2_PLACEMENT_3D ( 'NONE', #5, #226, #102 ) ;
#29 = SURFACE_STYLE_FILL_AREA ( #203 ) ;
#30 = CONICAL_SURFACE ( 'NONE', #247, 3.250000000000000000, 1.047197551196593600 ) ;
#31 = CARTESIAN_POINT ( 'NONE',  ( 1.000000000000000900, 0.0000000000000000000, 5.000000000000000900 ) ) ;
#32 = VECTOR ( 'NONE', #252, 1000.000000000000100 ) ;
#33 =( NAMED_UNIT ( * ) PLANE_ANGLE_UNIT ( ) SI_UNIT ( $, .RADIAN. ) );
#34 = EDGE_CURVE ( 'NONE', #79, #186, #94, .T. ) ;
#35 = EDGE_LOOP ( 'NONE', ( #295, #97, #303, #11, #160 ) ) ;
#36 = EDGE_LOOP ( 'NONE', ( #319 ) ) ;
#37 = CARTESIAN_POINT ( 'NONE',  ( 57.46857375413682700, -2.963030849335728700, 0.3082975692433632700 ) ) ;
#38 =( GEOMETRIC_REPRESENTATION_CONTEXT ( 3 ) GLOBAL_UNCERTAINTY_ASSIGNED_CONTEXT ( ( #109 ) ) GLOBAL_UNIT_ASSIGNED_CONTEXT ( ( #133, #179, #153 ) ) REPRESENTATION_CONTEXT ( 'NONE', 'WORKASPACE' ) );
#39 = CARTESIAN_POINT ( 'NONE',  ( 57.99999999999999300, 0.0000000000000000000, 0.0000000000000000000 ) ) ;
#40 = CARTESIAN_POINT ( 'NONE',  ( 57.26145531787087600, -2.248591245634782500, 1.622136990990005000 ) ) ;
#41 = CARTESIAN_POINT ( 'NONE',  ( 59.51659694316541800, -3.573877968317138000, -1.695915231359315100 ) ) ;
#42 = CARTESIAN_POINT ( 'NONE',  ( 57.26587703247056300, 2.260403868504267800, 1.593941689648376200 ) ) ;
#43 = CARTESIAN_POINT ( 'NONE',  ( 56.99999999999999300, 0.0000000000000000000, 0.0000000000000000000 ) ) ;
#44 = DIRECTION ( 'NONE',  ( -1.000000000000000000, -0.0000000000000000000, -0.0000000000000000000 ) ) ;
#45 = ORIENTED_EDGE ( 'NONE', *, *, #111, .F. ) ;
#46 = CARTESIAN_POINT ( 'NONE',  ( 57.75506226102187000, -2.807120482897529800, -1.666508291152711200 ) ) ;
#47 = DIRECTION ( 'NONE',  ( 0.0000000000000000000, -1.000000000000000000, 0.0000000000000000000 ) ) ;
#48 = EDGE_CURVE ( 'NONE', #86, #26, #293, .T. ) ;
#49 = CARTESIAN_POINT ( 'NONE',  ( 57.78649207179437800, -2.697300995271923800, -1.894484203281966900 ) ) ;
#50 = CARTESIAN_POINT ( 'NONE',  ( 57.08636047976220600, 2.211271489357111700, 1.344941459998449700 ) ) ;
#51 = EDGE_CURVE ( 'NONE', #235, #235, #120, .T. ) ;
#52 = CARTESIAN_POINT ( 'NONE',  ( 57.26587703247056300, 2.260403868504267800, 1.593941689648376200 ) ) ;
#53 = DIRECTION ( 'NONE',  ( 0.9996414556783738100, 0.0000000000000000000, 0.02677611041995643600 ) ) ;
#54 = CIRCLE ( 'NONE', #99, 3.250000000000000000 ) ;
#55 = FACE_OUTER_BOUND ( 'NONE', #173, .T. ) ;
#56 = FACE_OUTER_BOUND ( 'NONE', #3, .T. ) ;
#57 = PRODUCT_DEFINITION_CONTEXT ( 'detailed design', #92, 'design' ) ;
#58 =( GEOMETRIC_REPRESENTATION_CONTEXT ( 3 ) GLOBAL_UNCERTAINTY_ASSIGNED_CONTEXT ( ( #82 ) ) GLOBAL_UNIT_ASSIGNED_CONTEXT ( ( #154, #33, #261 ) ) REPRESENTATION_CONTEXT ( 'NONE', 'WORKASPACE' ) );
#59 = CARTESIAN_POINT ( 'NONE',  ( 56.99999999999999300, 0.0000000000000000000, 0.0000000000000000000 ) ) ;
#60 = FILL_AREA_STYLE ('',( #207 ) ) ;
#61 = ORIENTED_EDGE ( 'NONE', *, *, #314, .T. ) ;
#62 = CIRCLE ( 'NONE', #294, 2.500000000000000000 ) ;
#63 = EDGE_LOOP ( 'NONE', ( #221 ) ) ;
#64 = EDGE_LOOP ( 'NONE', ( #311, #45, #87 ) ) ;
#65 = ADVANCED_FACE ( 'NONE', ( #264 ), #299, .F. ) ;
#66 = CARTESIAN_POINT ( 'NONE',  ( 57.26587703247056300, 2.260403868504267800, 1.593941689648376200 ) ) ;
#67 = DIRECTION ( 'NONE',  ( 1.000000000000000000, 0.0000000000000000000, 0.0000000000000000000 ) ) ;
#68 = CARTESIAN_POINT ( 'NONE',  ( 57.36010218058108700, -2.688032368155166600, 1.008328789098406100 ) ) ;
#69 = DIRECTION ( 'NONE',  ( 0.0000000000000000000, -0.5773502691896271700, -0.8164965809277250400 ) ) ;
#70 = CARTESIAN_POINT ( 'NONE',  ( 60.00000000000001400, -2.242287751141530900, -3.500000000000070600 ) ) ;
#71 = DIRECTION ( 'NONE',  ( -1.000000000000000000, -0.0000000000000000000, -0.0000000000000000000 ) ) ;
#72 = DIRECTION ( 'NONE',  ( 0.0000000000000000000, 0.0000000000000000000, 1.000000000000000000 ) ) ;
#73 = FACE_BOUND ( 'NONE', #181, .T. ) ;
#74 = DIRECTION ( 'NONE',  ( 0.0000000000000000000, 0.0000000000000000000, 1.000000000000000000 ) ) ;
#75 = PRODUCT_RELATED_PRODUCT_CATEGORY ( 'part', '', ( #225 ) ) ;
#76 = ADVANCED_FACE ( 'NONE', ( #56 ), #300, .F. ) ;
#77 = APPLICATION_CONTEXT ( 'automotive_design' ) ;
#78 = DIRECTION ( 'NONE',  ( 0.7071067811865480200, 0.0000000000000000000, -0.7071067811865470200 ) ) ;
#79 = VERTEX_POINT ( 'NONE', #42 ) ;
#80 = CARTESIAN_POINT ( 'NONE',  ( 1.000000000000000900, 0.0000000000000000000, 0.0000000000000000000 ) ) ;
#81 = AXIS2_PLACEMENT_3D ( 'NONE', #304, #276, #166 ) ;
#82 = UNCERTAINTY_MEASURE_WITH_UNIT (LENGTH_MEASURE( 1.000000000000000100E-005 ), #154, 'distance_accuracy_value', 'NONE');
#83 = CONICAL_SURFACE ( 'NONE', #238, 3.499999999999999600, 0.7853981633974476100 ) ;
#84 = VECTOR ( 'NONE', #224, 1000.000000000000000 ) ;
#85 = AXIS2_PLACEMENT_3D ( 'NONE', #80, #205, #259 ) ;
#86 = VERTEX_POINT ( 'NONE', #195 ) ;
#87 = ORIENTED_EDGE ( 'NONE', *, *, #185, .F. ) ;
#88 = CARTESIAN_POINT ( 'NONE',  ( 57.20807181368346100, 1.901313678744727600, 1.944970959900252900 ) ) ;
#89 = ADVANCED_FACE ( 'NONE', ( #258 ), #83, .T. ) ;
#90 = CARTESIAN_POINT ( 'NONE',  ( 57.09653030430880700, 0.01732790991829786400, 2.599576278025151200 ) ) ;
#91 = VERTEX_POINT ( 'NONE', #31 ) ;
#92 = APPLICATION_CONTEXT ( 'automotive_design' ) ;
#93 = CARTESIAN_POINT ( 'NONE',  ( 0.0000000000000000000, 0.0000000000000000000, 0.0000000000000000000 ) ) ;
#94 = B_SPLINE_CURVE_WITH_KNOTS ( 'NONE', 3,
 ( #66, #246, #88, #147, #119, #270, #277, #116, #90, #273, #298, #18, #249, #193, #296, #317, #40, #161, #68, #250, #37, #187, #244, #118, #143, #46, #49, #98, #125, #217, #223, #101, #117, #139, #15, #211, #141, #191 ),
 .UNSPECIFIED., .F., .F.,
 ( 4, 2, 2, 2, 2, 2, 2, 2, 2, 2, 2, 2, 2, 2, 2, 2, 2, 2, 4 ),
 ( 0.0002320263816229234200, 0.0009898669289680082600, 0.001747707476313093000, 0.002505548023658178100, 0.002884468297330720200, 0.003263388571003262800, 0.004021229118348347000, 0.004779069665693432200, 0.005536910213038516400, 0.006294750760383599800, 0.007052591307728685000, 0.007810431855073769200, 0.008568272402418853500, 0.009326112949763936900, 0.01008395349710902000, 0.01046287377078156100, 0.01084179404445410400, 0.01159963459179918400, 0.01235747513914426700 ),
 .UNSPECIFIED. ) ;
#95 = ADVANCED_FACE ( 'NONE', ( #55 ), #184, .T. ) ;
#96 = CARTESIAN_POINT ( 'NONE',  ( 58.36831473700168300, -2.252380006951991900, 2.589532303471224300 ) ) ;
#97 = ORIENTED_EDGE ( 'NONE', *, *, #111, .T. ) ;
#98 = CARTESIAN_POINT ( 'NONE',  ( 57.84448557839930800, -2.421794713054232300, -2.320337705929046200 ) ) ;
#99 = AXIS2_PLACEMENT_3D ( 'NONE', #9, #135, #156 ) ;
#100 = DIRECTION ( 'NONE',  ( 0.0000000000000000000, 0.0000000000000000000, 1.000000000000000000 ) ) ;
#101 = CARTESIAN_POINT ( 'NONE',  ( 57.93494071114809400, -1.677271910881315200, -3.000256749436755100 ) ) ;
#102 = DIRECTION ( 'NONE',  ( -0.2588190451025138600, 0.0000000000000000000, 0.9659258262890700900 ) ) ;
#103 = DIRECTION ( 'NONE',  ( -1.000000000000000000, -0.0000000000000000000, -0.0000000000000000000 ) ) ;
#104 = CARTESIAN_POINT ( 'NONE',  ( -79.66162912480135100, 0.0000000000000000000, -3.499999999999999600 ) ) ;
#105 = CONICAL_SURFACE ( 'NONE', #251, 2.500000000000000000, 0.02677931101976599800 ) ;
#106 =( GEOMETRIC_REPRESENTATION_CONTEXT ( 3 ) GLOBAL_UNCERTAINTY_ASSIGNED_CONTEXT ( ( #140 ) ) GLOBAL_UNIT_ASSIGNED_CONTEXT ( ( #275, #254, #325 ) ) REPRESENTATION_CONTEXT ( 'NONE', 'WORKASPACE' ) );
#107 = DIRECTION ( 'NONE',  ( 0.0000000000000000000, 0.0000000000000000000, 1.000000000000000000 ) ) ;
#108 = ORIENTED_EDGE ( 'NONE', *, *, #262, .T. ) ;
#109 = UNCERTAINTY_MEASURE_WITH_UNIT (LENGTH_MEASURE( 1.000000000000000100E-005 ), #133, 'distance_accuracy_value', 'NONE');
#110 = ORIENTED_EDGE ( 'NONE', *, *, #318, .F. ) ;
#111 = EDGE_CURVE ( 'NONE', #26, #208, #158, .T. ) ;
#112 = CYLINDRICAL_SURFACE ( 'NONE', #234, 5.000000000000000900 ) ;
#113 = EDGE_LOOP ( 'NONE', ( #292 ) ) ;
#114 = FACE_OUTER_BOUND ( 'NONE', #157, .T. ) ;
#115 = PRESENTATION_LAYER_ASSIGNMENT (  '', '', ( #260 ) ) ;
#116 = CARTESIAN_POINT ( 'NONE',  ( 57.09711586847417000, 0.1436948039964036900, 2.596211919342953100 ) ) ;
#117 = CARTESIAN_POINT ( 'NONE',  ( 57.94374833094460800, -1.570471913898175800, -3.067384581878067200 ) ) ;
#118 = CARTESIAN_POINT ( 'NONE',  ( 57.65277636819659100, -3.019407158005963200, -0.9404659457037504200 ) ) ;
#119 = CARTESIAN_POINT ( 'NONE',  ( 57.14130806364644900, 1.250674881406257200, 2.340078561038078800 ) ) ;
#120 = CIRCLE ( 'NONE', #214, 5.000000000000000000 ) ;
#121 = CARTESIAN_POINT ( 'NONE',  ( 60.00000000000000000, 0.0000000000000000000, -3.500000000000069700 ) ) ;
#122 = PRODUCT_DEFINITION ( 'UNKNOWN', '', #138, #57 ) ;
#123 = B_SPLINE_CURVE_WITH_KNOTS ( 'NONE', 3,
 ( #152, #281, #50, #255 ),
 .UNSPECIFIED., .F., .F.,
 ( 4, 4 ),
 ( 0.001205836420267582100, 0.001671895362261042000 ),
 .UNSPECIFIED. ) ;
#124 = DIRECTION ( 'NONE',  ( -1.000000000000000000, -0.0000000000000000000, -0.0000000000000000000 ) ) ;
#125 = CARTESIAN_POINT ( 'NONE',  ( 57.87031731650923700, -2.260183521741303100, -2.512771608650187000 ) ) ;
#126 = CARTESIAN_POINT ( 'NONE',  ( 58.50817800745794300, 1.716859941991363900, 2.067555472015683000 ) ) ;
#127 = CARTESIAN_POINT ( 'NONE',  ( 150.3333333333333400, 0.0000000000000000000, 0.0000000000000000000 ) ) ;
#128 = EDGE_LOOP ( 'NONE', ( #182 ) ) ;
#129 = DIRECTION ( 'NONE',  ( 0.0000000000000000000, 0.0000000000000000000, 1.000000000000000000 ) ) ;
#130 = DIRECTION ( 'NONE',  ( 1.000000000000000000, 0.0000000000000000000, 0.0000000000000000000 ) ) ;
#131 = TOROIDAL_SURFACE ( 'NONE', #284, 4.000000000000000000, 1.000000000000000400 ) ;
#132 = ADVANCED_FACE ( 'NONE', ( #183, #267 ), #30, .T. ) ;
#133 =( LENGTH_UNIT ( ) NAMED_UNIT ( * ) SI_UNIT ( .MILLI., .METRE. ) );
#134 = ORIENTED_EDGE ( 'NONE', *, *, #185, .T. ) ;
#135 = DIRECTION ( 'NONE',  ( -1.000000000000000000, -0.0000000000000000000, -0.0000000000000000000 ) ) ;
#136 = MECHANICAL_DESIGN_GEOMETRIC_PRESENTATION_REPRESENTATION (  '', ( #260 ), #106 ) ;
#137 = VERTEX_POINT ( 'NONE', #162 ) ;
#138 = PRODUCT_DEFINITION_FORMATION_WITH_SPECIFIED_SOURCE ( 'ANY', '', #225, .NOT_KNOWN. ) ;
#139 = CARTESIAN_POINT ( 'NONE',  ( 57.96743668488480200, -1.238483458306645500, -3.248474479135659500 ) ) ;
#140 = UNCERTAINTY_MEASURE_WITH_UNIT (LENGTH_MEASURE( 1.000000000000000100E-005 ), #275, 'distance_accuracy_value', 'NONE');
#141 = CARTESIAN_POINT ( 'NONE',  ( 58.00000000000005000, -0.2560590259076771500, -3.500000000000069700 ) ) ;
#142 = ADVANCED_FACE ( 'NONE', ( #324, #114 ), #131, .T. ) ;
#143 = CARTESIAN_POINT ( 'NONE',  ( 57.68850424121671200, -2.967902705062927600, -1.191577859978908400 ) ) ;
#144 = DIRECTION ( 'NONE',  ( -1.000000000000000000, -0.0000000000000000000, -0.0000000000000000000 ) ) ;
#145 = STYLED_ITEM ( 'NONE', ( #313 ), #321 ) ;
#146 = DIRECTION ( 'NONE',  ( 0.0000000000000000000, 0.0000000000000000000, -1.000000000000000000 ) ) ;
#147 = CARTESIAN_POINT ( 'NONE',  ( 57.16060984103222600, 1.477472036581659400, 2.227144786287385900 ) ) ;
#148 = CARTESIAN_POINT ( 'NONE',  ( 58.16980649520562700, -0.1360137250293470300, 3.330375147575333400 ) ) ;
#149 = AXIS2_PLACEMENT_3D ( 'NONE', #306, #47, #220 ) ;
#150 = CARTESIAN_POINT ( 'NONE',  ( 60.00000000000000000, 0.0000000000000000000, -3.500000000000069700 ) ) ;
#151 = ORIENTED_EDGE ( 'NONE', *, *, #318, .T. ) ;
#152 = CARTESIAN_POINT ( 'NONE',  ( 57.26587703247056300, 2.260403868504267800, 1.593941689648376200 ) ) ;
#153 =( NAMED_UNIT ( * ) SI_UNIT ( $, .STERADIAN. ) SOLID_ANGLE_UNIT ( ) );
#154 =( LENGTH_UNIT ( ) NAMED_UNIT ( * ) SI_UNIT ( .MILLI., .METRE. ) );
#155 = VECTOR ( 'NONE', #274, 999.9999999999998900 ) ;
#156 = DIRECTION ( 'NONE',  ( 0.0000000000000000000, 0.0000000000000000000, 1.000000000000000000 ) ) ;
#157 = EDGE_LOOP ( 'NONE', ( #151 ) ) ;
#158 = LINE ( 'NONE', #168, #32 ) ;
#159 = EDGE_LOOP ( 'NONE', ( #61 ) ) ;
#160 = ORIENTED_EDGE ( 'NONE', *, *, #297, .F. ) ;
#161 = CARTESIAN_POINT ( 'NONE',  ( 57.32534886100123800, -2.557208593189678900, 1.226839815201651300 ) ) ;
#162 = CARTESIAN_POINT ( 'NONE',  ( 56.99999999999999300, 2.182939499724767500, 1.218513496249170600 ) ) ;
#163 = CARTESIAN_POINT ( 'NONE',  ( 53.44782534415762100, 3.351918951619402800, -0.6804745645883286700 ) ) ;
#164 = CARTESIAN_POINT ( 'NONE',  ( 17.80831014998707200, 12.90611922820185400, -22.80831014998714000 ) ) ;
#165 = CARTESIAN_POINT ( 'NONE',  ( 27.98963702891814300, 0.0000000000000000000, 0.0000000000000000000 ) ) ;
#166 = DIRECTION ( 'NONE',  ( 0.0000000000000000000, 0.0000000000000000000, 1.000000000000000000 ) ) ;
#167 = COLOUR_RGB ( '',1.000000000000000000, 1.000000000000000000, 0.5019607843137254800 ) ;
#168 = CARTESIAN_POINT ( 'NONE',  ( 64.89359771706342900, 0.0000000000000000000, -21.76315531188439300 ) ) ;
#169 = CARTESIAN_POINT ( 'NONE',  ( 56.99999999999999300, 0.0000000000000000000, -0.4515093145451545800 ) ) ;
#170 = CARTESIAN_POINT ( 'NONE',  ( 58.50817800745794300, 1.716859941991363900, 2.067555472015683000 ) ) ;
#171 = ORIENTED_EDGE ( 'NONE', *, *, #12, .T. ) ;
#172 = ORIENTED_EDGE ( 'NONE', *, *, #48, .F. ) ;
#173 = EDGE_LOOP ( 'NONE', ( #212, #266, #240, #239 ) ) ;
#174 = PLANE ( 'NONE',  #28 ) ;
#175 = LINE ( 'NONE', #197, #14 ) ;
#176 = CARTESIAN_POINT ( 'NONE',  ( 58.50817800745794300, 1.716859941991363900, 2.067555472015683000 ) ) ;
#177 = CARTESIAN_POINT ( 'NONE',  ( 0.0000000000000000000, 0.0000000000000000000, 0.0000000000000000000 ) ) ;
#178 = PLANE ( 'NONE',  #149 ) ;
#179 =( NAMED_UNIT ( * ) PLANE_ANGLE_UNIT ( ) SI_UNIT ( $, .RADIAN. ) );
#180 = ADVANCED_FACE ( 'NONE', ( #4, #248 ), #112, .T. ) ;
#181 = EDGE_LOOP ( 'NONE', ( #171, #315, #265 ) ) ;
#182 = ORIENTED_EDGE ( 'NONE', *, *, #51, .T. ) ;
#183 = FACE_OUTER_BOUND ( 'NONE', #215, .T. ) ;
#184 = CYLINDRICAL_SURFACE ( 'NONE', #228, 3.048490685454915200 ) ;
#185 = EDGE_CURVE ( 'NONE', #289, #26, #268, .T. ) ;
#186 = VERTEX_POINT ( 'NONE', #2 ) ;
#187 = CARTESIAN_POINT ( 'NONE',  ( 57.54324058467158700, -3.047595622802791400, -0.1887941938518541100 ) ) ;
#188 = FACE_OUTER_BOUND ( 'NONE', #63, .T. ) ;
#189 = EDGE_LOOP ( 'NONE', ( #110 ) ) ;
#190 = EDGE_CURVE ( 'NONE', #289, #79, #219, .T. ) ;
#191 = CARTESIAN_POINT ( 'NONE',  ( 58.00000000000006400, -1.656607900964124800E-026, -3.500000000000070200 ) ) ;
#192 = DIRECTION ( 'NONE',  ( 0.0000000000000000000, 0.0000000000000000000, 1.000000000000000000 ) ) ;
#193 = CARTESIAN_POINT ( 'NONE',  ( 57.15803737002816800, -1.450234544482607500, 2.242007363330073200 ) ) ;
#194 = DIRECTION ( 'NONE',  ( 0.0000000000000000000, 0.0000000000000000000, -1.000000000000000000 ) ) ;
#195 = CARTESIAN_POINT ( 'NONE',  ( 56.35125197074650300, 0.0000000000000000000, -2.517377179355007900 ) ) ;
#196 = CARTESIAN_POINT ( 'NONE',  ( 58.94245584008355400, -2.913128987634564700, 0.4468085360559544400 ) ) ;
#197 = CARTESIAN_POINT ( 'NONE',  ( 54.49999999999999300, 0.0000000000000000000, 0.0000000000000000000 ) ) ;
#198 = ADVANCED_BREP_SHAPE_REPRESENTATION ( 'U10.B07.001.031', ( #321, #305 ), #38 ) ;
#199 = CARTESIAN_POINT ( 'NONE',  ( 58.09005120392227900, 1.916370753791971900, 1.931579564368509000 ) ) ;
#200 = PRODUCT_CONTEXT ( 'NONE', #77, 'mechanical' ) ;
#201 = CLOSED_SHELL ( 'NONE', ( #89, #76, #65, #142, #180, #132, #323, #271, #95, #291 ) ) ;
#202 = FACE_OUTER_BOUND ( 'NONE', #35, .T. ) ;
#203 = FILL_AREA_STYLE ('',( #6 ) ) ;
#204 = ORIENTED_EDGE ( 'NONE', *, *, #190, .F. ) ;
#205 = DIRECTION ( 'NONE',  ( -1.000000000000000000, -0.0000000000000000000, -0.0000000000000000000 ) ) ;
#206 = EDGE_CURVE ( 'NONE', #269, #269, #236, .T. ) ;
#207 = FILL_AREA_STYLE_COLOUR ( '', #167 ) ;
#208 = VERTEX_POINT ( 'NONE', #150 ) ;
#209 = EDGE_CURVE ( 'NONE', #232, #137, #62, .T. ) ;
#210 = EDGE_CURVE ( 'NONE', #289, #208, #16, .T. ) ;
#211 = CARTESIAN_POINT ( 'NONE',  ( 57.99589495235283500, -0.5073984419963024600, -3.468124675395987100 ) ) ;
#212 = ORIENTED_EDGE ( 'NONE', *, *, #210, .F. ) ;
#213 = PRESENTATION_STYLE_ASSIGNMENT (( #320 ) ) ;
#214 = AXIS2_PLACEMENT_3D ( 'NONE', #165, #44, #192 ) ;
#215 = EDGE_LOOP ( 'NONE', ( #287 ) ) ;
#216 = CARTESIAN_POINT ( 'NONE',  ( 26.93431457505066000, 0.0000000000000000000, -31.93431457505075600 ) ) ;
#217 = CARTESIAN_POINT ( 'NONE',  ( 57.90466838147336400, -1.982314292677504800, -2.770929412066959900 ) ) ;
#218 = COLOUR_RGB ( '',1.000000000000000000, 1.000000000000000000, 0.5019607843137254800 ) ;
#219 =( BOUNDED_CURVE ( )  B_SPLINE_CURVE ( 3, ( #176, #199, #283, #52 ),
 .UNSPECIFIED., .F., .F. ) 
 B_SPLINE_CURVE_WITH_KNOTS ( ( 4, 4 ),
 ( 1.553550065707107700, 1.790594439550957000 ),
 .UNSPECIFIED. ) 
 CURVE ( )  GEOMETRIC_REPRESENTATION_ITEM ( )  RATIONAL_B_SPLINE_CURVE ( ( 1.000000000000000000, 0.9953229759614551400, 0.9953229759614551400, 1.000000000000000000 ) ) 
 REPRESENTATION_ITEM ( '' )  );
#220 = DIRECTION ( 'NONE',  ( 0.0000000000000000000, 0.0000000000000000000, -1.000000000000000000 ) ) ;
#221 = ORIENTED_EDGE ( 'NONE', *, *, #314, .F. ) ;
#222 = CARTESIAN_POINT ( 'NONE',  ( 56.99999999999999300, 0.0000000000000000000, -2.499999999999997300 ) ) ;
#223 = CARTESIAN_POINT ( 'NONE',  ( 57.91543131619089700, -1.883020323870248500, -2.852256908481167800 ) ) ;
#224 = DIRECTION ( 'NONE',  ( 0.1956488079738462300, -0.6546536707079766400, -0.7301712917987018800 ) ) ;
#225 = PRODUCT ( 'U10.B07.001.031', 'U10.B07.001.031', '', ( #200 ) ) ;
#226 = DIRECTION ( 'NONE',  ( -0.9659258262890700900, 0.0000000000000000000, -0.2588190451025138600 ) ) ;
#227 = SURFACE_STYLE_FILL_AREA ( #60 ) ;
#228 = AXIS2_PLACEMENT_3D ( 'NONE', #169, #21, #194 ) ;
#229 = PRESENTATION_LAYER_ASSIGNMENT (  '', '', ( #145 ) ) ;
#230 = DIRECTION ( 'NONE',  ( -1.000000000000000000, -0.0000000000000000000, -0.0000000000000000000 ) ) ;
#231 = ORIENTED_EDGE ( 'NONE', *, *, #34, .F. ) ;
#232 = VERTEX_POINT ( 'NONE', #222 ) ;
#233 = SURFACE_SIDE_STYLE ('',( #227 ) ) ;
#234 = AXIS2_PLACEMENT_3D ( 'NONE', #27, #103, #129 ) ;
#235 = VERTEX_POINT ( 'NONE', #309 ) ;
#236 = CIRCLE ( 'NONE', #81, 4.000000000000000000 ) ;
#237 = VECTOR ( 'NONE', #53, 1000.000000000000200 ) ;
#238 = AXIS2_PLACEMENT_3D ( 'NONE', #39, #67, #302 ) ;
#239 = ORIENTED_EDGE ( 'NONE', *, *, #242, .T. ) ;
#240 = ORIENTED_EDGE ( 'NONE', *, *, #34, .T. ) ;
#241 = ORIENTED_EDGE ( 'NONE', *, *, #282, .T. ) ;
#242 = EDGE_CURVE ( 'NONE', #186, #208, #290, .T. ) ;
#243 = SURFACE_SIDE_STYLE ('',( #29 ) ) ;
#244 = CARTESIAN_POINT ( 'NONE',  ( 57.58050574680339700, -3.058725228570827500, -0.4416022929969504700 ) ) ;
#245 = PRODUCT_DEFINITION_SHAPE ( 'NONE', 'NONE',  #122 ) ;
#246 = CARTESIAN_POINT ( 'NONE',  ( 57.23539107995969000, 2.091410772744322100, 1.780693973923649600 ) ) ;
#247 = AXIS2_PLACEMENT_3D ( 'NONE', #22, #71, #72 ) ;
#248 = FACE_OUTER_BOUND ( 'NONE', #128, .T. ) ;
#249 = CARTESIAN_POINT ( 'NONE',  ( 57.12326508643786800, -0.9829980969795832900, 2.445372987057241600 ) ) ;
#250 = CARTESIAN_POINT ( 'NONE',  ( 57.43191766593964300, -2.891059805102215800, 0.5476996247772704100 ) ) ;
#251 = AXIS2_PLACEMENT_3D ( 'NONE', #59, #230, #107 ) ;
#252 = DIRECTION ( 'NONE',  ( 0.2588190451025138600, 0.0000000000000000000, -0.9659258262890700900 ) ) ;
#253 = DIRECTION ( 'NONE',  ( 0.0000000000000000000, 0.0000000000000000000, 1.000000000000000000 ) ) ;
#254 =( NAMED_UNIT ( * ) PLANE_ANGLE_UNIT ( ) SI_UNIT ( $, .RADIAN. ) );
#255 = CARTESIAN_POINT ( 'NONE',  ( 56.99999999999999300, 2.182939499724767500, 1.218513496249170600 ) ) ;
#256 = CARTESIAN_POINT ( 'NONE',  ( 59.07079993171442600, -0.1657097079322336600, -0.03217813476175113200 ) ) ;
#257 = VECTOR ( 'NONE', #130, 1000.000000000000000 ) ;
#258 = FACE_OUTER_BOUND ( 'NONE', #17, .T. ) ;
#259 = DIRECTION ( 'NONE',  ( 0.0000000000000000000, 0.0000000000000000000, 1.000000000000000000 ) ) ;
#260 = STYLED_ITEM ( 'NONE', ( #213 ), #198 ) ;
#261 =( NAMED_UNIT ( * ) SI_UNIT ( $, .STERADIAN. ) SOLID_ANGLE_UNIT ( ) );
#262 = EDGE_CURVE ( 'NONE', #232, #186, #175, .T. ) ;
#263 = AXIS2_PLACEMENT_3D ( 'NONE', #164, #24, #69 ) ;
#264 = FACE_OUTER_BOUND ( 'NONE', #36, .T. ) ;
#265 = ORIENTED_EDGE ( 'NONE', *, *, #209, .T. ) ;
#266 = ORIENTED_EDGE ( 'NONE', *, *, #190, .T. ) ;
#267 = FACE_BOUND ( 'NONE', #159, .T. ) ;
#268 = LINE ( 'NONE', #256, #84 ) ;
#269 = VERTEX_POINT ( 'NONE', #285 ) ;
#270 = CARTESIAN_POINT ( 'NONE',  ( 57.11246205514285600, 0.7739626077010668400, 2.507904885590479100 ) ) ;
#271 = ADVANCED_FACE ( 'NONE', ( #202 ), #178, .F. ) ;
#272 = CARTESIAN_POINT ( 'NONE',  ( 56.35125197074650300, 0.0000000000000000000, -2.517377179355007900 ) ) ;
#273 = CARTESIAN_POINT ( 'NONE',  ( 57.09811751275485400, -0.2365007642226885900, 2.590445803166860000 ) ) ;
#274 = DIRECTION ( 'NONE',  ( 0.7071067811865487900, -0.0000000000000000000, 0.7071067811865463500 ) ) ;
#275 =( LENGTH_UNIT ( ) NAMED_UNIT ( * ) SI_UNIT ( .MILLI., .METRE. ) );
#276 = DIRECTION ( 'NONE',  ( -1.000000000000000000, -0.0000000000000000000, -0.0000000000000000000 ) ) ;
#277 = CARTESIAN_POINT ( 'NONE',  ( 57.10293643213774600, 0.5211792466038294200, 2.562706583453095500 ) ) ;
#278 = DIRECTION ( 'NONE',  ( 1.000000000000000000, 0.0000000000000000000, 0.0000000000000000000 ) ) ;
#279 = ORIENTED_EDGE ( 'NONE', *, *, #282, .F. ) ;
#280 = CARTESIAN_POINT ( 'NONE',  ( 1.000000000000000900, 0.0000000000000000000, 0.0000000000000000000 ) ) ;
#281 = CARTESIAN_POINT ( 'NONE',  ( 57.17519330799924400, 2.236863359097108500, 1.469966657508275500 ) ) ;
#282 = EDGE_CURVE ( 'NONE', #79, #137, #123, .T. ) ;
#283 = CARTESIAN_POINT ( 'NONE',  ( 57.67400502092747400, 2.098403433850039200, 1.772966466306945300 ) ) ;
#284 = AXIS2_PLACEMENT_3D ( 'NONE', #280, #144, #74 ) ;
#285 = CARTESIAN_POINT ( 'NONE',  ( 0.0000000000000000000, 0.0000000000000000000, 4.000000000000000000 ) ) ;
#286 = SURFACE_STYLE_USAGE ( .BOTH. , #233 ) ;
#287 = ORIENTED_EDGE ( 'NONE', *, *, #51, .F. ) ;
#288 = AXIS2_PLACEMENT_3D ( 'NONE', #93, #278, #146 ) ;
#289 = VERTEX_POINT ( 'NONE', #126 ) ;
#290 = LINE ( 'NONE', #104, #257 ) ;
#291 = ADVANCED_FACE ( 'NONE', ( #7 ), #174, .F. ) ;
#292 = ORIENTED_EDGE ( 'NONE', *, *, #206, .F. ) ;
#293 = LINE ( 'NONE', #216, #155 ) ;
#294 = AXIS2_PLACEMENT_3D ( 'NONE', #43, #124, #253 ) ;
#295 = ORIENTED_EDGE ( 'NONE', *, *, #48, .T. ) ;
#296 = CARTESIAN_POINT ( 'NONE',  ( 57.18005723460887400, -1.668512261545395100, 2.112238832352392000 ) ) ;
#297 = EDGE_CURVE ( 'NONE', #86, #232, #13, .T. ) ;
#298 = CARTESIAN_POINT ( 'NONE',  ( 57.10032467719493400, -0.3646908204645579700, 2.577752919105235700 ) ) ;
#299 = PLANE ( 'NONE',  #288 ) ;
#300 = PLANE ( 'NONE',  #263 ) ;
#301 =( BOUNDED_CURVE ( )  B_SPLINE_CURVE ( 3, ( #19, #163, #20, #272 ),
 .UNSPECIFIED., .F., .F. ) 
 B_SPLINE_CURVE_WITH_KNOTS ( ( 4, 4 ),
 ( 5.116297972848534500, 7.276913103960113800 ),
 .UNSPECIFIED. ) 
 CURVE ( )  GEOMETRIC_REPRESENTATION_ITEM ( )  RATIONAL_B_SPLINE_CURVE ( ( 1.000000000000000000, 0.6473713880279571300, 0.6473713880279571300, 1.000000000000000000 ) ) 
 REPRESENTATION_ITEM ( '' )  );
#302 = DIRECTION ( 'NONE',  ( 0.0000000000000000000, 0.0000000000000000000, -1.000000000000000000 ) ) ;
#303 = ORIENTED_EDGE ( 'NONE', *, *, #242, .F. ) ;
#304 = CARTESIAN_POINT ( 'NONE',  ( 0.0000000000000000000, 0.0000000000000000000, 0.0000000000000000000 ) ) ;
#305 = AXIS2_PLACEMENT_3D ( 'NONE', #177, #100, #25 ) ;
#306 = CARTESIAN_POINT ( 'NONE',  ( 26.93431457505066000, 0.0000000000000000000, -31.93431457505075600 ) ) ;
#307 = CARTESIAN_POINT ( 'NONE',  ( 28.99999999999999600, 0.0000000000000000000, 3.250000000000000000 ) ) ;
#308 = APPLICATION_PROTOCOL_DEFINITION ( 'draft international standard', 'automotive_design', 1998, #77 ) ;
#309 = CARTESIAN_POINT ( 'NONE',  ( 27.98963702891814300, 0.0000000000000000000, 5.000000000000000000 ) ) ;
#310 = CIRCLE ( 'NONE', #85, 5.000000000000000900 ) ;
#311 = ORIENTED_EDGE ( 'NONE', *, *, #210, .T. ) ;
#312 = ORIENTED_EDGE ( 'NONE', *, *, #12, .F. ) ;
#313 = PRESENTATION_STYLE_ASSIGNMENT (( #286 ) ) ;
#314 = EDGE_CURVE ( 'NONE', #1, #1, #54, .T. ) ;
#315 = ORIENTED_EDGE ( 'NONE', *, *, #297, .T. ) ;
#316 = APPLICATION_PROTOCOL_DEFINITION ( 'draft international standard', 'automotive_design', 1998, #92 ) ;
#317 = CARTESIAN_POINT ( 'NONE',  ( 57.23155470239832000, -2.066665988394603900, 1.803624699224511500 ) ) ;
#318 = EDGE_CURVE ( 'NONE', #91, #91, #310, .T. ) ;
#319 = ORIENTED_EDGE ( 'NONE', *, *, #206, .T. ) ;
#320 = SURFACE_STYLE_USAGE ( .BOTH. , #243 ) ;
#321 = MANIFOLD_SOLID_BREP ( 'Schnitt-Linear austragen3', #201 ) ;
#322 = CARTESIAN_POINT ( 'NONE',  ( 59.02127617850370500, 0.0000000000000000000, 0.1526470284021769800 ) ) ;
#323 = ADVANCED_FACE ( 'NONE', ( #188, #73 ), #105, .T. ) ;
#324 = FACE_OUTER_BOUND ( 'NONE', #113, .T. ) ;
#325 =( NAMED_UNIT ( * ) SI_UNIT ( $, .STERADIAN. ) SOLID_ANGLE_UNIT ( ) );
ENDSEC;
END-ISO-10303-21;
