ISO-10303-21;
HEADER;
FILE_DESCRIPTION (( 'STEP AP214' ),
    '1' );
FILE_NAME ('U10.B07.002.031.STEP',
    '2020-10-01T11:35:12',
    ( '' ),
    ( '' ),
    'SwSTEP 2.0',
    'SolidWorks 2017',
    '' );
FILE_SCHEMA (( 'AUTOMOTIVE_DESIGN' ));
ENDSEC;

DATA;
#1 = DIRECTION ( 'NONE',  ( 0.7071067811865487900, -0.0000000000000000000, 0.7071067811865463500 ) ) ;
#2 = CARTESIAN_POINT ( 'NONE',  ( 58.00000000000005000, -0.2560590259076771500, -3.500000000000069700 ) ) ;
#3 = ORIENTED_EDGE ( 'NONE', *, *, #78, .F. ) ;
#4 = CARTESIAN_POINT ( 'NONE',  ( 58.00000000000006400, -1.656607900964124800E-026, -3.500000000000070200 ) ) ;
#5 = CARTESIAN_POINT ( 'NONE',  ( 56.99999999999999300, 0.0000000000000000000, -2.499999999999997300 ) ) ;
#6 = CARTESIAN_POINT ( 'NONE',  ( 0.0000000000000000000, 0.0000000000000000000, 0.0000000000000000000 ) ) ;
#7 = PRODUCT_CONTEXT ( 'NONE', #154, 'mechanical' ) ;
#8 = FACE_OUTER_BOUND ( 'NONE', #183, .T. ) ;
#9 = CARTESIAN_POINT ( 'NONE',  ( 27.98963702891814300, 0.0000000000000000000, 5.000000000000000000 ) ) ;
#10 = EDGE_CURVE ( 'NONE', #255, #255, #51, .T. ) ;
#11 = ORIENTED_EDGE ( 'NONE', *, *, #198, .F. ) ;
#12 = ORIENTED_EDGE ( 'NONE', *, *, #89, .T. ) ;
#13 = DIRECTION ( 'NONE',  ( 0.0000000000000000000, 0.0000000000000000000, 1.000000000000000000 ) ) ;
#14 = CARTESIAN_POINT ( 'NONE',  ( 26.93431457505066000, 0.0000000000000000000, -31.93431457505075600 ) ) ;
#15 = CARTESIAN_POINT ( 'NONE',  ( 1.000000000000000900, 0.0000000000000000000, 0.0000000000000000000 ) ) ;
#16 = CARTESIAN_POINT ( 'NONE',  ( 57.26587703247056300, 2.260403868504267800, 1.593941689648376200 ) ) ;
#17 = CARTESIAN_POINT ( 'NONE',  ( 58.94245584008355400, -2.913128987634564700, 0.4468085360559544400 ) ) ;
#18 = FILL_AREA_STYLE_COLOUR ( '', #164 ) ;
#19 = ADVANCED_FACE ( 'NONE', ( #186 ), #104, .T. ) ;
#20 = EDGE_CURVE ( 'NONE', #265, #206, #239, .T. ) ;
#21 = B_SPLINE_CURVE_WITH_KNOTS ( 'NONE', 3,
 ( #220, #201, #301, #75, #25, #149, #99, #126, #152, #171, #41, #267, #92, #67, #270, #119, #297, #174, #224, #245, #146, #43, #148, #202, #73, #45, #121, #299, #302, #50, #277, #253, #24, #98, #205, #151, #2, #4 ),
 .UNSPECIFIED., .F., .F.,
 ( 4, 2, 2, 2, 2, 2, 2, 2, 2, 2, 2, 2, 2, 2, 2, 2, 2, 2, 4 ),
 ( 0.0002320263816229234200, 0.0009898669289680082600, 0.001747707476313093000, 0.002505548023658178100, 0.002884468297330720200, 0.003263388571003262800, 0.004021229118348347000, 0.004779069665693432200, 0.005536910213038516400, 0.006294750760383599800, 0.007052591307728685000, 0.007810431855073769200, 0.008568272402418853500, 0.009326112949763936900, 0.01008395349710902000, 0.01046287377078156100, 0.01084179404445410400, 0.01159963459179918400, 0.01235747513914426700 ),
 .UNSPECIFIED. ) ;
#22 = ORIENTED_EDGE ( 'NONE', *, *, #182, .F. ) ;
#23 = CONICAL_SURFACE ( 'NONE', #161, 2.500000000000000000, 0.02677931101976599800 ) ;
#24 = CARTESIAN_POINT ( 'NONE',  ( 57.94374833094460800, -1.570471913898175800, -3.067384581878067200 ) ) ;
#25 = CARTESIAN_POINT ( 'NONE',  ( 57.14130806364644900, 1.250674881406257200, 2.340078561038078800 ) ) ;
#26 = DIRECTION ( 'NONE',  ( -1.000000000000000000, -0.0000000000000000000, -0.0000000000000000000 ) ) ;
#27 = CARTESIAN_POINT ( 'NONE',  ( 57.26587703247056300, 2.260403868504267800, 1.593941689648376200 ) ) ;
#28 = SURFACE_STYLE_FILL_AREA ( #229 ) ;
#29 = CARTESIAN_POINT ( 'NONE',  ( 53.44782534415762100, 3.351918951619402800, -0.6804745645883286700 ) ) ;
#30 = EDGE_LOOP ( 'NONE', ( #323, #212, #298, #76, #3 ) ) ;
#31 = CIRCLE ( 'NONE', #58, 2.500000000000000000 ) ;
#32 = AXIS2_PLACEMENT_3D ( 'NONE', #14, #37, #116 ) ;
#33 = ORIENTED_EDGE ( 'NONE', *, *, #314, .T. ) ;
#34 = EDGE_CURVE ( 'NONE', #231, #275, #114, .T. ) ;
#35 = FACE_BOUND ( 'NONE', #60, .T. ) ;
#36 = CARTESIAN_POINT ( 'NONE',  ( 57.08636047976220600, 2.211271489357111700, 1.344941459998449700 ) ) ;
#37 = DIRECTION ( 'NONE',  ( 0.0000000000000000000, -1.000000000000000000, 0.0000000000000000000 ) ) ;
#38 = CARTESIAN_POINT ( 'NONE',  ( 57.26587703247056300, 2.260403868504267800, 1.593941689648376200 ) ) ;
#39 = DIRECTION ( 'NONE',  ( -1.000000000000000000, -0.0000000000000000000, -0.0000000000000000000 ) ) ;
#40 =( LENGTH_UNIT ( ) NAMED_UNIT ( * ) SI_UNIT ( .MILLI., .METRE. ) );
#41 = CARTESIAN_POINT ( 'NONE',  ( 57.10032467719493400, -0.3646908204645579700, 2.577752919105235700 ) ) ;
#42 = ADVANCED_FACE ( 'NONE', ( #109, #189 ), #271, .T. ) ;
#43 = CARTESIAN_POINT ( 'NONE',  ( 57.54324058467158700, -3.047595622802791400, -0.1887941938518541100 ) ) ;
#44 = ORIENTED_EDGE ( 'NONE', *, *, #34, .F. ) ;
#45 = CARTESIAN_POINT ( 'NONE',  ( 57.75506226102187000, -2.807120482897529800, -1.666508291152711200 ) ) ;
#46 = DIRECTION ( 'NONE',  ( 0.0000000000000000000, 0.0000000000000000000, 1.000000000000000000 ) ) ;
#47 = DIRECTION ( 'NONE',  ( -0.2588190451025138600, 0.0000000000000000000, 0.9659258262890700900 ) ) ;
#48 = DIRECTION ( 'NONE',  ( 0.0000000000000000000, 0.0000000000000000000, 1.000000000000000000 ) ) ;
#49 = CARTESIAN_POINT ( 'NONE',  ( 59.02127617850370500, 0.0000000000000000000, 0.1526470284021769800 ) ) ;
#50 = CARTESIAN_POINT ( 'NONE',  ( 57.90466838147336400, -1.982314292677504800, -2.770929412066959900 ) ) ;
#51 = CIRCLE ( 'NONE', #56, 3.250000000000000000 ) ;
#52 = DIRECTION ( 'NONE',  ( 0.0000000000000000000, 0.0000000000000000000, -1.000000000000000000 ) ) ;
#53 = VERTEX_POINT ( 'NONE', #257 ) ;
#54 =( GEOMETRIC_REPRESENTATION_CONTEXT ( 3 ) GLOBAL_UNCERTAINTY_ASSIGNED_CONTEXT ( ( #105 ) ) GLOBAL_UNIT_ASSIGNED_CONTEXT ( ( #230, #227, #278 ) ) REPRESENTATION_CONTEXT ( 'NONE', 'WORKASPACE' ) );
#55 = ORIENTED_EDGE ( 'NONE', *, *, #261, .T. ) ;
#56 = AXIS2_PLACEMENT_3D ( 'NONE', #315, #62, #191 ) ;
#57 = UNCERTAINTY_MEASURE_WITH_UNIT (LENGTH_MEASURE( 1.000000000000000100E-005 ), #40, 'distance_accuracy_value', 'NONE');
#58 = AXIS2_PLACEMENT_3D ( 'NONE', #66, #39, #65 ) ;
#59 = VERTEX_POINT ( 'NONE', #195 ) ;
#60 = EDGE_LOOP ( 'NONE', ( #200 ) ) ;
#61 = VECTOR ( 'NONE', #272, 1000.000000000000000 ) ;
#62 = DIRECTION ( 'NONE',  ( -1.000000000000000000, -0.0000000000000000000, -0.0000000000000000000 ) ) ;
#63 = ORIENTED_EDGE ( 'NONE', *, *, #320, .T. ) ;
#64 = CARTESIAN_POINT ( 'NONE',  ( 58.09005120392227900, 1.916370753791971900, 1.931579564368509000 ) ) ;
#65 = DIRECTION ( 'NONE',  ( 0.0000000000000000000, 0.0000000000000000000, 1.000000000000000000 ) ) ;
#66 = CARTESIAN_POINT ( 'NONE',  ( 56.99999999999999300, 0.0000000000000000000, 0.0000000000000000000 ) ) ;
#67 = CARTESIAN_POINT ( 'NONE',  ( 57.15803737002816800, -1.450234544482607500, 2.242007363330073200 ) ) ;
#68 = EDGE_LOOP ( 'NONE', ( #175 ) ) ;
#69 = DIRECTION ( 'NONE',  ( -0.4999999999999996700, -0.7071067811865469100, 0.5000000000000013300 ) ) ;
#70 = CIRCLE ( 'NONE', #304, 4.000000000000000000 ) ;
#71 = FILL_AREA_STYLE ('',( #18 ) ) ;
#72 = DIRECTION ( 'NONE',  ( 0.7071067811865480200, 0.0000000000000000000, -0.7071067811865470200 ) ) ;
#73 = CARTESIAN_POINT ( 'NONE',  ( 57.68850424121671200, -2.967902705062927600, -1.191577859978908400 ) ) ;
#74 = PRODUCT ( 'U10.B07.002.031', 'U10.B07.002.031', '', ( #7 ) ) ;
#75 = CARTESIAN_POINT ( 'NONE',  ( 57.16060984103222600, 1.477472036581659400, 2.227144786287385900 ) ) ;
#76 = ORIENTED_EDGE ( 'NONE', *, *, #320, .F. ) ;
#77 =( GEOMETRIC_REPRESENTATION_CONTEXT ( 3 ) GLOBAL_UNCERTAINTY_ASSIGNED_CONTEXT ( ( #84 ) ) GLOBAL_UNIT_ASSIGNED_CONTEXT ( ( #210, #279, #80 ) ) REPRESENTATION_CONTEXT ( 'NONE', 'WORKASPACE' ) );
#78 = EDGE_CURVE ( 'NONE', #313, #59, #250, .T. ) ;
#79 = EDGE_LOOP ( 'NONE', ( #246, #12, #135, #33 ) ) ;
#80 =( NAMED_UNIT ( * ) SI_UNIT ( $, .STERADIAN. ) SOLID_ANGLE_UNIT ( ) );
#81 = STYLED_ITEM ( 'NONE', ( #233 ), #144 ) ;
#82 = ORIENTED_EDGE ( 'NONE', *, *, #198, .T. ) ;
#83 = CONICAL_SURFACE ( 'NONE', #95, 3.499999999999999600, 0.7853981633974476100 ) ;
#84 = UNCERTAINTY_MEASURE_WITH_UNIT (LENGTH_MEASURE( 1.000000000000000100E-005 ), #210, 'distance_accuracy_value', 'NONE');
#85 = EDGE_LOOP ( 'NONE', ( #93 ) ) ;
#86 = LINE ( 'NONE', #274, #117 ) ;
#87 = CARTESIAN_POINT ( 'NONE',  ( 56.99999999999999300, 2.182939499724767500, 1.218513496249170600 ) ) ;
#88 = PRESENTATION_LAYER_ASSIGNMENT (  '', '', ( #81 ) ) ;
#89 = EDGE_CURVE ( 'NONE', #259, #313, #204, .T. ) ;
#90 = DIRECTION ( 'NONE',  ( 1.000000000000000000, -0.0000000000000000000, -0.0000000000000000000 ) ) ;
#91 = DIRECTION ( 'NONE',  ( 0.0000000000000000000, -0.5773502691896271700, -0.8164965809277250400 ) ) ;
#92 = CARTESIAN_POINT ( 'NONE',  ( 57.12326508643786800, -0.9829980969795832900, 2.445372987057241600 ) ) ;
#93 = ORIENTED_EDGE ( 'NONE', *, *, #139, .F. ) ;
#94 = CARTESIAN_POINT ( 'NONE',  ( 1.000000000000000900, 0.0000000000000000000, 0.0000000000000000000 ) ) ;
#95 = AXIS2_PLACEMENT_3D ( 'NONE', #221, #179, #52 ) ;
#96 = DIRECTION ( 'NONE',  ( 0.0000000000000000000, 0.0000000000000000000, 1.000000000000000000 ) ) ;
#97 = PLANE ( 'NONE',  #242 ) ;
#98 = CARTESIAN_POINT ( 'NONE',  ( 57.96743668488480200, -1.238483458306645500, -3.248474479135659500 ) ) ;
#99 = CARTESIAN_POINT ( 'NONE',  ( 57.10293643213774600, 0.5211792466038294200, 2.562706583453095500 ) ) ;
#100 = ORIENTED_EDGE ( 'NONE', *, *, #34, .T. ) ;
#101 = VECTOR ( 'NONE', #193, 1000.000000000000200 ) ;
#102 = EDGE_CURVE ( 'NONE', #284, #284, #283, .T. ) ;
#103 = AXIS2_PLACEMENT_3D ( 'NONE', #15, #225, #46 ) ;
#104 = CYLINDRICAL_SURFACE ( 'NONE', #160, 3.048490685454915200 ) ;
#105 = UNCERTAINTY_MEASURE_WITH_UNIT (LENGTH_MEASURE( 1.000000000000000100E-005 ), #230, 'distance_accuracy_value', 'NONE');
#106 = EDGE_CURVE ( 'NONE', #259, #206, #138, .T. ) ;
#107 = CARTESIAN_POINT ( 'NONE',  ( 58.00000000000006400, -1.656607900964124800E-026, -3.500000000000070200 ) ) ;
#108 = EDGE_LOOP ( 'NONE', ( #222 ) ) ;
#109 = FACE_OUTER_BOUND ( 'NONE', #85, .T. ) ;
#110 = LINE ( 'NONE', #127, #232 ) ;
#111 = MECHANICAL_DESIGN_GEOMETRIC_PRESENTATION_REPRESENTATION (  '', ( #81 ), #54 ) ;
#112 = CARTESIAN_POINT ( 'NONE',  ( 27.98963702891814300, 0.0000000000000000000, 0.0000000000000000000 ) ) ;
#113 = DIRECTION ( 'NONE',  ( 0.0000000000000000000, 0.0000000000000000000, 1.000000000000000000 ) ) ;
#114 = LINE ( 'NONE', #316, #101 ) ;
#115 = CARTESIAN_POINT ( 'NONE',  ( 58.36831473700168300, -2.252380006951991900, 2.589532303471224300 ) ) ;
#116 = DIRECTION ( 'NONE',  ( 0.0000000000000000000, 0.0000000000000000000, -1.000000000000000000 ) ) ;
#117 = VECTOR ( 'NONE', #72, 1000.000000000000000 ) ;
#118 = CARTESIAN_POINT ( 'NONE',  ( -79.66162912480135100, 0.0000000000000000000, 0.0000000000000000000 ) ) ;
#119 = CARTESIAN_POINT ( 'NONE',  ( 57.23155470239832000, -2.066665988394603900, 1.803624699224511500 ) ) ;
#120 = ORIENTED_EDGE ( 'NONE', *, *, #10, .F. ) ;
#121 = CARTESIAN_POINT ( 'NONE',  ( 57.78649207179437800, -2.697300995271923800, -1.894484203281966900 ) ) ;
#122 = DIRECTION ( 'NONE',  ( -1.000000000000000000, -0.0000000000000000000, -0.0000000000000000000 ) ) ;
#123 = AXIS2_PLACEMENT_3D ( 'NONE', #112, #218, #113 ) ;
#124 = DIRECTION ( 'NONE',  ( 1.000000000000000000, 0.0000000000000000000, 0.0000000000000000000 ) ) ;
#125 = ORIENTED_EDGE ( 'NONE', *, *, #286, .F. ) ;
#126 = CARTESIAN_POINT ( 'NONE',  ( 57.09711586847417000, 0.1436948039964036900, 2.596211919342953100 ) ) ;
#127 = CARTESIAN_POINT ( 'NONE',  ( 26.93431457505066000, 0.0000000000000000000, -31.93431457505075600 ) ) ;
#128 = MECHANICAL_DESIGN_GEOMETRIC_PRESENTATION_REPRESENTATION (  '', ( #190 ), #142 ) ;
#129 = PLANE ( 'NONE',  #288 ) ;
#130 = DIRECTION ( 'NONE',  ( 1.000000000000000000, 0.0000000000000000000, 0.0000000000000000000 ) ) ;
#131 = APPLICATION_CONTEXT ( 'automotive_design' ) ;
#132 = ORIENTED_EDGE ( 'NONE', *, *, #286, .T. ) ;
#133 = FILL_AREA_STYLE_COLOUR ( '', #228 ) ;
#134 = PRODUCT_RELATED_PRODUCT_CATEGORY ( 'part', '', ( #74 ) ) ;
#135 = ORIENTED_EDGE ( 'NONE', *, *, #248, .T. ) ;
#136 = FACE_BOUND ( 'NONE', #187, .T. ) ;
#137 = PRESENTATION_LAYER_ASSIGNMENT (  '', '', ( #190 ) ) ;
#138 =( BOUNDED_CURVE ( )  B_SPLINE_CURVE ( 3, ( #263, #167, #115, #17, #241, #321, #196 ),
 .UNSPECIFIED., .F., .F. ) 
 B_SPLINE_CURVE_WITH_KNOTS ( ( 4, 3, 4 ),
 ( 2.543359206007193700, 4.413272256593390200, 6.283185307179586200 ),
 .UNSPECIFIED. ) 
 CURVE ( )  GEOMETRIC_REPRESENTATION_ITEM ( )  RATIONAL_B_SPLINE_CURVE ( ( 1.000000000000000000, 0.7292356036813159000, 0.7292356036813159000, 1.000000000000000000, 0.7292356036813159000, 0.7292356036813159000, 1.000000000000000000 ) ) 
 REPRESENTATION_ITEM ( '' )  );
#139 = EDGE_CURVE ( 'NONE', #53, #53, #213, .T. ) ;
#140 = ORIENTED_EDGE ( 'NONE', *, *, #20, .T. ) ;
#141 = CARTESIAN_POINT ( 'NONE',  ( 60.00000000000000000, 0.0000000000000000000, -3.500000000000069700 ) ) ;
#142 =( GEOMETRIC_REPRESENTATION_CONTEXT ( 3 ) GLOBAL_UNCERTAINTY_ASSIGNED_CONTEXT ( ( #57 ) ) GLOBAL_UNIT_ASSIGNED_CONTEXT ( ( #40, #292, #243 ) ) REPRESENTATION_CONTEXT ( 'NONE', 'WORKASPACE' ) );
#143 = DIRECTION ( 'NONE',  ( -1.000000000000000000, -0.0000000000000000000, -0.0000000000000000000 ) ) ;
#144 = ADVANCED_BREP_SHAPE_REPRESENTATION ( 'U10.B07.002.031', ( #188, #185 ), #77 ) ;
#145 = CARTESIAN_POINT ( 'NONE',  ( 58.50817800745794300, 1.716859941991363900, 2.067555472015683000 ) ) ;
#146 = CARTESIAN_POINT ( 'NONE',  ( 57.46857375413682700, -2.963030849335728700, 0.3082975692433632700 ) ) ;
#147 = ADVANCED_FACE ( 'NONE', ( #177, #176 ), #157, .T. ) ;
#148 = CARTESIAN_POINT ( 'NONE',  ( 57.58050574680339700, -3.058725228570827500, -0.4416022929969504700 ) ) ;
#149 = CARTESIAN_POINT ( 'NONE',  ( 57.11246205514285600, 0.7739626077010668400, 2.507904885590479100 ) ) ;
#150 = ORIENTED_EDGE ( 'NONE', *, *, #102, .F. ) ;
#151 = CARTESIAN_POINT ( 'NONE',  ( 57.99589495235283500, -0.5073984419963024600, -3.468124675395987100 ) ) ;
#152 = CARTESIAN_POINT ( 'NONE',  ( 57.09653030430880700, 0.01732790991829786400, 2.599576278025151200 ) ) ;
#153 = CARTESIAN_POINT ( 'NONE',  ( 28.99999999999999600, 0.0000000000000000000, 3.250000000000000000 ) ) ;
#154 = APPLICATION_CONTEXT ( 'automotive_design' ) ;
#155 = EDGE_LOOP ( 'NONE', ( #120 ) ) ;
#156 = CARTESIAN_POINT ( 'NONE',  ( 56.35125197074650300, 0.0000000000000000000, -2.517377179355007900 ) ) ;
#157 = TOROIDAL_SURFACE ( 'NONE', #103, 4.000000000000000000, 1.000000000000000400 ) ;
#158 = PRODUCT_DEFINITION ( 'UNKNOWN', '', #312, #234 ) ;
#159 = SURFACE_STYLE_USAGE ( .BOTH. , #309 ) ;
#160 = AXIS2_PLACEMENT_3D ( 'NONE', #165, #90, #215 ) ;
#161 = AXIS2_PLACEMENT_3D ( 'NONE', #294, #322, #319 ) ;
#162 = PLANE ( 'NONE',  #32 ) ;
#163 = VERTEX_POINT ( 'NONE', #107 ) ;
#164 = COLOUR_RGB ( '',1.000000000000000000, 1.000000000000000000, 0.5019607843137254800 ) ;
#165 = CARTESIAN_POINT ( 'NONE',  ( 56.99999999999999300, 0.0000000000000000000, -0.4515093145451545800 ) ) ;
#166 = ADVANCED_FACE ( 'NONE', ( #300 ), #162, .F. ) ;
#167 = CARTESIAN_POINT ( 'NONE',  ( 58.16980649520562700, -0.1360137250293470300, 3.330375147575333400 ) ) ;
#168 = CARTESIAN_POINT ( 'NONE',  ( 17.80831014998707200, 12.90611922820185400, -22.80831014998714000 ) ) ;
#169 = CARTESIAN_POINT ( 'NONE',  ( 64.89359771706342900, 0.0000000000000000000, -21.76315531188439300 ) ) ;
#170 = CARTESIAN_POINT ( 'NONE',  ( 0.0000000000000000000, 0.0000000000000000000, 0.0000000000000000000 ) ) ;
#171 = CARTESIAN_POINT ( 'NONE',  ( 57.09811751275485400, -0.2365007642226885900, 2.590445803166860000 ) ) ;
#172 = SURFACE_SIDE_STYLE ('',( #184 ) ) ;
#173 = CARTESIAN_POINT ( 'NONE',  ( 56.35125197074650300, 0.0000000000000000000, -2.517377179355007900 ) ) ;
#174 = CARTESIAN_POINT ( 'NONE',  ( 57.32534886100123800, -2.557208593189678900, 1.226839815201651300 ) ) ;
#175 = ORIENTED_EDGE ( 'NONE', *, *, #102, .T. ) ;
#176 = FACE_OUTER_BOUND ( 'NONE', #289, .T. ) ;
#177 = FACE_OUTER_BOUND ( 'NONE', #108, .T. ) ;
#178 = CARTESIAN_POINT ( 'NONE',  ( 28.99999999999999600, 0.0000000000000000000, 0.0000000000000000000 ) ) ;
#179 = DIRECTION ( 'NONE',  ( 1.000000000000000000, 0.0000000000000000000, 0.0000000000000000000 ) ) ;
#180 = AXIS2_PLACEMENT_3D ( 'NONE', #178, #26, #48 ) ;
#181 = VECTOR ( 'NONE', #266, 1000.000000000000100 ) ;
#182 = EDGE_CURVE ( 'NONE', #259, #265, #236, .T. ) ;
#183 = EDGE_LOOP ( 'NONE', ( #150 ) ) ;
#184 = SURFACE_STYLE_FILL_AREA ( #71 ) ;
#185 = AXIS2_PLACEMENT_3D ( 'NONE', #6, #208, #130 ) ;
#186 = FACE_OUTER_BOUND ( 'NONE', #79, .T. ) ;
#187 = EDGE_LOOP ( 'NONE', ( #63, #100, #82 ) ) ;
#188 = MANIFOLD_SOLID_BREP ( 'Schnitt-Linear austragen3', #269 ) ;
#189 = FACE_OUTER_BOUND ( 'NONE', #68, .T. ) ;
#190 = STYLED_ITEM ( 'NONE', ( #260 ), #188 ) ;
#191 = DIRECTION ( 'NONE',  ( 0.0000000000000000000, 0.0000000000000000000, 1.000000000000000000 ) ) ;
#192 = EDGE_CURVE ( 'NONE', #311, #311, #70, .T. ) ;
#193 = DIRECTION ( 'NONE',  ( 0.9996414556783738100, 0.0000000000000000000, 0.02677611041995643600 ) ) ;
#194 = EDGE_LOOP ( 'NONE', ( #290 ) ) ;
#195 = CARTESIAN_POINT ( 'NONE',  ( 56.99999999999999300, 2.182939499724767500, 1.218513496249170600 ) ) ;
#196 = CARTESIAN_POINT ( 'NONE',  ( 60.00000000000000000, 0.0000000000000000000, -3.500000000000069700 ) ) ;
#197 = SURFACE_STYLE_USAGE ( .BOTH. , #172 ) ;
#198 = EDGE_CURVE ( 'NONE', #275, #59, #31, .T. ) ;
#199 = ADVANCED_FACE ( 'NONE', ( #223, #136 ), #23, .T. ) ;
#200 = ORIENTED_EDGE ( 'NONE', *, *, #10, .T. ) ;
#201 = CARTESIAN_POINT ( 'NONE',  ( 57.23539107995969000, 2.091410772744322100, 1.780693973923649600 ) ) ;
#202 = CARTESIAN_POINT ( 'NONE',  ( 57.65277636819659100, -3.019407158005963200, -0.9404659457037504200 ) ) ;
#203 = CARTESIAN_POINT ( 'NONE',  ( 57.56831207149903700, -5.000000000000000900, 5.575182897317681400 ) ) ;
#204 =( BOUNDED_CURVE ( )  B_SPLINE_CURVE ( 3, ( #145, #64, #238, #38 ),
 .UNSPECIFIED., .F., .T. ) 
 B_SPLINE_CURVE_WITH_KNOTS ( ( 4, 4 ),
 ( 1.553550065707107700, 1.790594439550957000 ),
 .UNSPECIFIED. ) 
 CURVE ( )  GEOMETRIC_REPRESENTATION_ITEM ( )  RATIONAL_B_SPLINE_CURVE ( ( 1.000000000000000000, 0.9953229759614551400, 0.9953229759614551400, 1.000000000000000000 ) ) 
 REPRESENTATION_ITEM ( '' )  );
#205 = CARTESIAN_POINT ( 'NONE',  ( 57.97970485519733300, -0.9981760622953608200, -3.343060103122454500 ) ) ;
#206 = VERTEX_POINT ( 'NONE', #141 ) ;
#207 = CARTESIAN_POINT ( 'NONE',  ( 58.50817800745794300, 1.716859941991363900, 2.067555472015683000 ) ) ;
#208 = DIRECTION ( 'NONE',  ( 0.0000000000000000000, 0.0000000000000000000, 1.000000000000000000 ) ) ;
#209 = ORIENTED_EDGE ( 'NONE', *, *, #106, .T. ) ;
#210 =( LENGTH_UNIT ( ) NAMED_UNIT ( * ) SI_UNIT ( .MILLI., .METRE. ) );
#211 = AXIS2_PLACEMENT_3D ( 'NONE', #118, #268, #13 ) ;
#212 = ORIENTED_EDGE ( 'NONE', *, *, #182, .T. ) ;
#213 = CIRCLE ( 'NONE', #237, 5.000000000000000900 ) ;
#214 =( BOUNDED_CURVE ( )  B_SPLINE_CURVE ( 3, ( #306, #29, #280, #156 ),
 .UNSPECIFIED., .F., .F. ) 
 B_SPLINE_CURVE_WITH_KNOTS ( ( 4, 4 ),
 ( 5.116297972848534500, 7.276913103960113800 ),
 .UNSPECIFIED. ) 
 CURVE ( )  GEOMETRIC_REPRESENTATION_ITEM ( )  RATIONAL_B_SPLINE_CURVE ( ( 1.000000000000000000, 0.6473713880279571300, 0.6473713880279571300, 1.000000000000000000 ) ) 
 REPRESENTATION_ITEM ( '' )  );
#215 = DIRECTION ( 'NONE',  ( 0.0000000000000000000, 0.0000000000000000000, -1.000000000000000000 ) ) ;
#216 = ORIENTED_EDGE ( 'NONE', *, *, #20, .F. ) ;
#217 = FACE_OUTER_BOUND ( 'NONE', #317, .T. ) ;
#218 = DIRECTION ( 'NONE',  ( -1.000000000000000000, -0.0000000000000000000, -0.0000000000000000000 ) ) ;
#219 = PLANE ( 'NONE',  #325 ) ;
#220 = CARTESIAN_POINT ( 'NONE',  ( 57.26587703247056300, 2.260403868504267800, 1.593941689648376200 ) ) ;
#221 = CARTESIAN_POINT ( 'NONE',  ( 57.99999999999999300, 0.0000000000000000000, 0.0000000000000000000 ) ) ;
#222 = ORIENTED_EDGE ( 'NONE', *, *, #192, .F. ) ;
#223 = FACE_OUTER_BOUND ( 'NONE', #155, .T. ) ;
#224 = CARTESIAN_POINT ( 'NONE',  ( 57.36010218058108700, -2.688032368155166600, 1.008328789098406100 ) ) ;
#225 = DIRECTION ( 'NONE',  ( -1.000000000000000000, -0.0000000000000000000, -0.0000000000000000000 ) ) ;
#226 = DIRECTION ( 'NONE',  ( 1.000000000000000000, 0.0000000000000000000, 0.0000000000000000000 ) ) ;
#227 =( NAMED_UNIT ( * ) PLANE_ANGLE_UNIT ( ) SI_UNIT ( $, .RADIAN. ) );
#228 = COLOUR_RGB ( '',1.000000000000000000, 1.000000000000000000, 0.5019607843137254800 ) ;
#229 = FILL_AREA_STYLE ('',( #133 ) ) ;
#230 =( LENGTH_UNIT ( ) NAMED_UNIT ( * ) SI_UNIT ( .MILLI., .METRE. ) );
#231 = VERTEX_POINT ( 'NONE', #173 ) ;
#232 = VECTOR ( 'NONE', #1, 999.9999999999998900 ) ;
#233 = PRESENTATION_STYLE_ASSIGNMENT (( #159 ) ) ;
#234 = PRODUCT_DEFINITION_CONTEXT ( 'detailed design', #131, 'design' ) ;
#235 = ORIENTED_EDGE ( 'NONE', *, *, #314, .F. ) ;
#236 = LINE ( 'NONE', #295, #61 ) ;
#237 = AXIS2_PLACEMENT_3D ( 'NONE', #94, #122, #96 ) ;
#238 = CARTESIAN_POINT ( 'NONE',  ( 57.67400502092747400, 2.098403433850039200, 1.772966466306945300 ) ) ;
#239 = LINE ( 'NONE', #169, #181 ) ;
#240 = FACE_OUTER_BOUND ( 'NONE', #287, .T. ) ;
#241 = CARTESIAN_POINT ( 'NONE',  ( 59.51659694316541800, -3.573877968317138000, -1.695915231359315100 ) ) ;
#242 = AXIS2_PLACEMENT_3D ( 'NONE', #305, #124, #303 ) ;
#243 =( NAMED_UNIT ( * ) SI_UNIT ( $, .STERADIAN. ) SOLID_ANGLE_UNIT ( ) );
#244 = ADVANCED_FACE ( 'NONE', ( #249 ), #219, .F. ) ;
#245 = CARTESIAN_POINT ( 'NONE',  ( 57.43191766593964300, -2.891059805102215800, 0.5476996247772704100 ) ) ;
#246 = ORIENTED_EDGE ( 'NONE', *, *, #106, .F. ) ;
#247 = DIRECTION ( 'NONE',  ( 0.0000000000000000000, 0.0000000000000000000, 1.000000000000000000 ) ) ;
#248 = EDGE_CURVE ( 'NONE', #313, #163, #21, .T. ) ;
#249 = FACE_OUTER_BOUND ( 'NONE', #30, .T. ) ;
#250 = B_SPLINE_CURVE_WITH_KNOTS ( 'NONE', 3,
 ( #16, #293, #36, #87 ),
 .UNSPECIFIED., .F., .F.,
 ( 4, 4 ),
 ( 0.001205836420267582100, 0.001671895362261042000 ),
 .UNSPECIFIED. ) ;
#251 = CARTESIAN_POINT ( 'NONE',  ( -79.66162912480135100, 0.0000000000000000000, -3.499999999999999600 ) ) ;
#252 = ADVANCED_FACE ( 'NONE', ( #8, #35 ), #291, .T. ) ;
#253 = CARTESIAN_POINT ( 'NONE',  ( 57.93494071114809400, -1.677271910881315200, -3.000256749436755100 ) ) ;
#254 = ORIENTED_EDGE ( 'NONE', *, *, #78, .T. ) ;
#255 = VERTEX_POINT ( 'NONE', #153 ) ;
#256 = VECTOR ( 'NONE', #226, 1000.000000000000000 ) ;
#257 = CARTESIAN_POINT ( 'NONE',  ( 1.000000000000000900, 0.0000000000000000000, 5.000000000000000900 ) ) ;
#258 = ORIENTED_EDGE ( 'NONE', *, *, #248, .F. ) ;
#259 = VERTEX_POINT ( 'NONE', #207 ) ;
#260 = PRESENTATION_STYLE_ASSIGNMENT (( #197 ) ) ;
#261 = EDGE_CURVE ( 'NONE', #231, #265, #110, .T. ) ;
#262 = LINE ( 'NONE', #251, #256 ) ;
#263 = CARTESIAN_POINT ( 'NONE',  ( 58.50817800745794300, 1.716859941991363900, 2.067555472015683000 ) ) ;
#264 = ADVANCED_FACE ( 'NONE', ( #217 ), #129, .F. ) ;
#265 = VERTEX_POINT ( 'NONE', #49 ) ;
#266 = DIRECTION ( 'NONE',  ( 0.2588190451025138600, 0.0000000000000000000, -0.9659258262890700900 ) ) ;
#267 = CARTESIAN_POINT ( 'NONE',  ( 57.11094645188485000, -0.7407895272395886900, 2.516496884475095500 ) ) ;
#268 = DIRECTION ( 'NONE',  ( -1.000000000000000000, -0.0000000000000000000, -0.0000000000000000000 ) ) ;
#269 = CLOSED_SHELL ( 'NONE', ( #296, #244, #273, #147, #42, #252, #199, #166, #19, #264 ) ) ;
#270 = CARTESIAN_POINT ( 'NONE',  ( 57.18005723460887400, -1.668512261545395100, 2.112238832352392000 ) ) ;
#271 = CYLINDRICAL_SURFACE ( 'NONE', #211, 5.000000000000000900 ) ;
#272 = DIRECTION ( 'NONE',  ( 0.1956488079738462300, -0.6546536707079766400, -0.7301712917987018800 ) ) ;
#273 = ADVANCED_FACE ( 'NONE', ( #318 ), #97, .F. ) ;
#274 = CARTESIAN_POINT ( 'NONE',  ( 54.49999999999999300, 0.0000000000000000000, 0.0000000000000000000 ) ) ;
#275 = VERTEX_POINT ( 'NONE', #5 ) ;
#276 = DIRECTION ( 'NONE',  ( -0.9659258262890700900, 0.0000000000000000000, -0.2588190451025138600 ) ) ;
#277 = CARTESIAN_POINT ( 'NONE',  ( 57.91543131619089700, -1.883020323870248500, -2.852256908481167800 ) ) ;
#278 =( NAMED_UNIT ( * ) SI_UNIT ( $, .STERADIAN. ) SOLID_ANGLE_UNIT ( ) );
#279 =( NAMED_UNIT ( * ) PLANE_ANGLE_UNIT ( ) SI_UNIT ( $, .RADIAN. ) );
#280 = CARTESIAN_POINT ( 'NONE',  ( 53.11378317441757700, 2.227917314591800800, -2.604095093542381400 ) ) ;
#281 = EDGE_LOOP ( 'NONE', ( #55, #140, #235, #125, #44 ) ) ;
#282 = APPLICATION_PROTOCOL_DEFINITION ( 'draft international standard', 'automotive_design', 1998, #154 ) ;
#283 = CIRCLE ( 'NONE', #123, 5.000000000000000000 ) ;
#284 = VERTEX_POINT ( 'NONE', #9 ) ;
#285 = PRODUCT_DEFINITION_SHAPE ( 'NONE', 'NONE',  #158 ) ;
#286 = EDGE_CURVE ( 'NONE', #275, #163, #86, .T. ) ;
#287 = EDGE_LOOP ( 'NONE', ( #258, #254, #11, #132 ) ) ;
#288 = AXIS2_PLACEMENT_3D ( 'NONE', #203, #276, #47 ) ;
#289 = EDGE_LOOP ( 'NONE', ( #310 ) ) ;
#290 = ORIENTED_EDGE ( 'NONE', *, *, #192, .T. ) ;
#291 = CONICAL_SURFACE ( 'NONE', #180, 3.250000000000000000, 1.047197551196593600 ) ;
#292 =( NAMED_UNIT ( * ) PLANE_ANGLE_UNIT ( ) SI_UNIT ( $, .RADIAN. ) );
#293 = CARTESIAN_POINT ( 'NONE',  ( 57.17519330799924400, 2.236863359097108500, 1.469966657508275500 ) ) ;
#294 = CARTESIAN_POINT ( 'NONE',  ( 56.99999999999999300, 0.0000000000000000000, 0.0000000000000000000 ) ) ;
#295 = CARTESIAN_POINT ( 'NONE',  ( 59.07079993171442600, -0.1657097079322336600, -0.03217813476175113200 ) ) ;
#296 = ADVANCED_FACE ( 'NONE', ( #240 ), #83, .T. ) ;
#297 = CARTESIAN_POINT ( 'NONE',  ( 57.26145531787087600, -2.248591245634782500, 1.622136990990005000 ) ) ;
#298 = ORIENTED_EDGE ( 'NONE', *, *, #261, .F. ) ;
#299 = CARTESIAN_POINT ( 'NONE',  ( 57.84448557839930800, -2.421794713054232300, -2.320337705929046200 ) ) ;
#300 = FACE_OUTER_BOUND ( 'NONE', #281, .T. ) ;
#301 = CARTESIAN_POINT ( 'NONE',  ( 57.20807181368346100, 1.901313678744727600, 1.944970959900252900 ) ) ;
#302 = CARTESIAN_POINT ( 'NONE',  ( 57.87031731650923700, -2.260183521741303100, -2.512771608650187000 ) ) ;
#303 = DIRECTION ( 'NONE',  ( 0.0000000000000000000, 0.0000000000000000000, -1.000000000000000000 ) ) ;
#304 = AXIS2_PLACEMENT_3D ( 'NONE', #170, #143, #247 ) ;
#305 = CARTESIAN_POINT ( 'NONE',  ( 0.0000000000000000000, 0.0000000000000000000, 0.0000000000000000000 ) ) ;
#306 = CARTESIAN_POINT ( 'NONE',  ( 56.99999999999999300, 2.182939499724767500, 1.218513496249170600 ) ) ;
#307 = CARTESIAN_POINT ( 'NONE',  ( 0.0000000000000000000, 0.0000000000000000000, 4.000000000000000000 ) ) ;
#308 = APPLICATION_PROTOCOL_DEFINITION ( 'draft international standard', 'automotive_design', 1998, #131 ) ;
#309 = SURFACE_SIDE_STYLE ('',( #28 ) ) ;
#310 = ORIENTED_EDGE ( 'NONE', *, *, #139, .T. ) ;
#311 = VERTEX_POINT ( 'NONE', #307 ) ;
#312 = PRODUCT_DEFINITION_FORMATION_WITH_SPECIFIED_SOURCE ( 'ANY', '', #74, .NOT_KNOWN. ) ;
#313 = VERTEX_POINT ( 'NONE', #27 ) ;
#314 = EDGE_CURVE ( 'NONE', #163, #206, #262, .T. ) ;
#315 = CARTESIAN_POINT ( 'NONE',  ( 28.99999999999999600, 0.0000000000000000000, 0.0000000000000000000 ) ) ;
#316 = CARTESIAN_POINT ( 'NONE',  ( 150.3333333333333400, 0.0000000000000000000, 0.0000000000000000000 ) ) ;
#317 = EDGE_LOOP ( 'NONE', ( #209, #216, #22 ) ) ;
#318 = FACE_OUTER_BOUND ( 'NONE', #194, .T. ) ;
#319 = DIRECTION ( 'NONE',  ( 0.0000000000000000000, 0.0000000000000000000, 1.000000000000000000 ) ) ;
#320 = EDGE_CURVE ( 'NONE', #59, #231, #214, .T. ) ;
#321 = CARTESIAN_POINT ( 'NONE',  ( 60.00000000000001400, -2.242287751141530900, -3.500000000000070600 ) ) ;
#322 = DIRECTION ( 'NONE',  ( -1.000000000000000000, -0.0000000000000000000, -0.0000000000000000000 ) ) ;
#323 = ORIENTED_EDGE ( 'NONE', *, *, #89, .F. ) ;
#324 = SHAPE_DEFINITION_REPRESENTATION ( #285, #144 ) ;
#325 = AXIS2_PLACEMENT_3D ( 'NONE', #168, #69, #91 ) ;
ENDSEC;
END-ISO-10303-21;
