ISO-10303-21;
HEADER;
FILE_DESCRIPTION (( 'STEP AP214' ),
    '1' );
FILE_NAME ('U10.B06.002.028.STEP',
    '2020-10-01T11:35:22',
    ( '' ),
    ( '' ),
    'SwSTEP 2.0',
    'SolidWorks 2017',
    '' );
FILE_SCHEMA (( 'AUTOMOTIVE_DESIGN' ));
ENDSEC;

DATA;
#1 = CARTESIAN_POINT ( 'NONE',  ( 54.72824132045563800, 1.334067135876117600, 1.746268007026343000 ) ) ;
#2 = DIRECTION ( 'NONE',  ( 0.0000000000000000000, 0.0000000000000000000, 1.000000000000000000 ) ) ;
#3 = PLANE ( 'NONE',  #183 ) ;
#4 = PRODUCT_DEFINITION_SHAPE ( 'NONE', 'NONE',  #73 ) ;
#5 =( NAMED_UNIT ( * ) PLANE_ANGLE_UNIT ( ) SI_UNIT ( $, .RADIAN. ) );
#6 = VECTOR ( 'NONE', #252, 1000.000000000000000 ) ;
#7 = SURFACE_STYLE_USAGE ( .BOTH. , #115 ) ;
#8 = ORIENTED_EDGE ( 'NONE', *, *, #92, .F. ) ;
#9 = FACE_OUTER_BOUND ( 'NONE', #274, .T. ) ;
#10 = VECTOR ( 'NONE', #297, 999.9999999999998900 ) ;
#11 = CARTESIAN_POINT ( 'NONE',  ( 50.56817052719804200, 2.703836011363130800, -0.4766570652009641300 ) ) ;
#12 = FACE_OUTER_BOUND ( 'NONE', #144, .T. ) ;
#13 = ORIENTED_EDGE ( 'NONE', *, *, #280, .T. ) ;
#14 = CARTESIAN_POINT ( 'NONE',  ( 52.85600173310356100, 0.0000000000000000000, -2.012627416997956300 ) ) ;
#15 = EDGE_CURVE ( 'NONE', #96, #96, #225, .T. ) ;
#16 = SURFACE_STYLE_USAGE ( .BOTH. , #99 ) ;
#17 = CARTESIAN_POINT ( 'NONE',  ( 53.62960405006261100, 0.4988068646961382200, 2.080960165880911800 ) ) ;
#18 = CARTESIAN_POINT ( 'NONE',  ( 54.65131065873596600, -1.964814518048281000, 2.033377145224036100 ) ) ;
#19 = VERTEX_POINT ( 'NONE', #286 ) ;
#20 = CARTESIAN_POINT ( 'NONE',  ( 53.86329622598282900, -2.199966032643076100, 0.8871185527461461500 ) ) ;
#21 = AXIS2_PLACEMENT_3D ( 'NONE', #114, #182, #264 ) ;
#22 = ORIENTED_EDGE ( 'NONE', *, *, #56, .F. ) ;
#23 = CARTESIAN_POINT ( 'NONE',  ( 54.49999999999997900, -0.2117394110554200700, -2.999999999999992500 ) ) ;
#24 = CARTESIAN_POINT ( 'NONE',  ( 54.10852700682706000, -2.568212205102904400, -0.5001574492242520900 ) ) ;
#25 = CARTESIAN_POINT ( 'NONE',  ( 54.49999999999998600, -2.958228394578794300E-028, -2.999999999999991600 ) ) ;
#26 = CARTESIAN_POINT ( 'NONE',  ( 53.76452031879041700, 1.775033629930165700, 1.406167801804468800 ) ) ;
#27 = FACE_OUTER_BOUND ( 'NONE', #190, .T. ) ;
#28 = DIRECTION ( 'NONE',  ( -1.000000000000000000, -0.0000000000000000000, -0.0000000000000000000 ) ) ;
#29 = FILL_AREA_STYLE ('',( #89 ) ) ;
#30 = ORIENTED_EDGE ( 'NONE', *, *, #312, .T. ) ;
#31 = VERTEX_POINT ( 'NONE', #44 ) ;
#32 = LINE ( 'NONE', #262, #10 ) ;
#33 = SHAPE_DEFINITION_REPRESENTATION ( #4, #147 ) ;
#34 = DIRECTION ( 'NONE',  ( 0.0000000000000000000, 0.0000000000000000000, 1.000000000000000000 ) ) ;
#35 = LINE ( 'NONE', #311, #220 ) ;
#36 = STYLED_ITEM ( 'NONE', ( #90 ), #77 ) ;
#37 = CARTESIAN_POINT ( 'NONE',  ( 53.50000000000000000, 0.0000000000000000000, -0.4393781512587416300 ) ) ;
#38 = FILL_AREA_STYLE_COLOUR ( '', #168 ) ;
#39 = CARTESIAN_POINT ( 'NONE',  ( 53.62421844339377200, -0.3414564507327166900, 2.106967813333263000 ) ) ;
#40 = CARTESIAN_POINT ( 'NONE',  ( 53.49999999999999300, 1.705935258377097300, 1.043927628825802400 ) ) ;
#41 = CARTESIAN_POINT ( 'NONE',  ( 53.65684453023337900, -0.9485737073034702400, 1.948330589812102200 ) ) ;
#42 = ORIENTED_EDGE ( 'NONE', *, *, #304, .F. ) ;
#43 = CARTESIAN_POINT ( 'NONE',  ( 53.49999999999999300, 0.0000000000000000000, 0.0000000000000000000 ) ) ;
#44 = CARTESIAN_POINT ( 'NONE',  ( 52.85600173310356100, 0.0000000000000000000, -2.012627416997956300 ) ) ;
#45 = DIRECTION ( 'NONE',  ( 1.000000000000000000, 0.0000000000000000000, 0.0000000000000000000 ) ) ;
#46 = EDGE_CURVE ( 'NONE', #164, #164, #63, .T. ) ;
#47 = DIRECTION ( 'NONE',  ( 0.0000000000000000000, -0.5773502691896276200, -0.8164965809277247000 ) ) ;
#48 = ORIENTED_EDGE ( 'NONE', *, *, #267, .F. ) ;
#49 = PLANE ( 'NONE',  #270 ) ;
#50 = CARTESIAN_POINT ( 'NONE',  ( 27.99999999999999600, 0.0000000000000000000, 0.0000000000000000000 ) ) ;
#51 = EDGE_CURVE ( 'NONE', #31, #197, #303, .T. ) ;
#52 = CLOSED_SHELL ( 'NONE', ( #300, #156, #289, #260, #253, #53, #319, #239, #87, #159 ) ) ;
#53 = ADVANCED_FACE ( 'NONE', ( #148, #191 ), #314, .T. ) ;
#54 = FACE_OUTER_BOUND ( 'NONE', #265, .T. ) ;
#55 = VERTEX_POINT ( 'NONE', #123 ) ;
#56 = EDGE_CURVE ( 'NONE', #55, #31, #118, .T. ) ;
#57 = UNCERTAINTY_MEASURE_WITH_UNIT (LENGTH_MEASURE( 1.000000000000000100E-005 ), #221, 'distance_accuracy_value', 'NONE');
#58 = CARTESIAN_POINT ( 'NONE',  ( 53.80008298043828300, -1.958914221400294400, 1.222578263246410600 ) ) ;
#59 = CARTESIAN_POINT ( 'NONE',  ( 53.76452031879041700, 1.775033629930165700, 1.406167801804468800 ) ) ;
#60 = DIRECTION ( 'NONE',  ( 0.0000000000000000000, -1.000000000000000000, 0.0000000000000000000 ) ) ;
#61 = ORIENTED_EDGE ( 'NONE', *, *, #46, .T. ) ;
#62 = CARTESIAN_POINT ( 'NONE',  ( 53.77022750030142400, -1.816356885022306000, 1.377510811517380400 ) ) ;
#63 = CIRCLE ( 'NONE', #170, 5.000000000000000900 ) ;
#64 = CARTESIAN_POINT ( 'NONE',  ( 26.55662432702592200, 0.0000000000000000000, 0.0000000000000000000 ) ) ;
#65 = B_SPLINE_CURVE_WITH_KNOTS ( 'NONE', 3,
 ( #152, #101, #287, #40 ),
 .UNSPECIFIED., .F., .F.,
 ( 4, 4 ),
 ( 0.001180292868724685800, 0.001633625888831042500 ),
 .UNSPECIFIED. ) ;
#66 = CARTESIAN_POINT ( 'NONE',  ( 54.37991672056828200, -1.874781319025908800, -2.195986618291919000 ) ) ;
#67 = EDGE_LOOP ( 'NONE', ( #290 ) ) ;
#68 = CARTESIAN_POINT ( 'NONE',  ( 54.72824132045563800, 1.334067135876117600, 1.746268007026343000 ) ) ;
#69 =( GEOMETRIC_REPRESENTATION_CONTEXT ( 3 ) GLOBAL_UNCERTAINTY_ASSIGNED_CONTEXT ( ( #248 ) ) GLOBAL_UNIT_ASSIGNED_CONTEXT ( ( #188, #5, #273 ) ) REPRESENTATION_CONTEXT ( 'NONE', 'WORKASPACE' ) );
#70 = APPLICATION_PROTOCOL_DEFINITION ( 'draft international standard', 'automotive_design', 1998, #212 ) ;
#71 = CARTESIAN_POINT ( 'NONE',  ( 0.0000000000000000000, 0.0000000000000000000, 4.000000000000000000 ) ) ;
#72 = FACE_OUTER_BOUND ( 'NONE', #207, .T. ) ;
#73 = PRODUCT_DEFINITION ( 'UNKNOWN', '', #215, #167 ) ;
#74 = EDGE_CURVE ( 'NONE', #229, #180, #35, .T. ) ;
#75 = DIRECTION ( 'NONE',  ( 0.1956488079738463700, -0.6546536707079772000, -0.7301712917987014400 ) ) ;
#76 = CARTESIAN_POINT ( 'NONE',  ( 53.96677317454528100, -2.454573839809728300, 0.3185888968761194100 ) ) ;
#77 = MANIFOLD_SOLID_BREP ( 'Schnitt-Linear austragen3', #52 ) ;
#78 = CARTESIAN_POINT ( 'NONE',  ( 0.0000000000000000000, 0.0000000000000000000, 0.0000000000000000000 ) ) ;
#79 = SURFACE_STYLE_FILL_AREA ( #313 ) ;
#80 = PRODUCT ( 'U10.B06.002.028', 'U10.B06.002.028', '', ( #315 ) ) ;
#81 = CARTESIAN_POINT ( 'NONE',  ( 1.000000000000000900, 0.0000000000000000000, 0.0000000000000000000 ) ) ;
#82 = CARTESIAN_POINT ( 'NONE',  ( 53.96126126393014700, -5.000000000000000900, 4.608676546371594200 ) ) ;
#83 = CARTESIAN_POINT ( 'NONE',  ( 54.17680708127838300, -2.525299814955696200, -0.9108321766794909000 ) ) ;
#84 = DIRECTION ( 'NONE',  ( 0.0000000000000000000, 0.0000000000000000000, 1.000000000000000000 ) ) ;
#85 = VECTOR ( 'NONE', #298, 999.9999999999998900 ) ;
#86 = DIRECTION ( 'NONE',  ( -1.000000000000000000, -0.0000000000000000000, -0.0000000000000000000 ) ) ;
#87 = ADVANCED_FACE ( 'NONE', ( #306 ), #214, .T. ) ;
#88 = AXIS2_PLACEMENT_3D ( 'NONE', #81, #86, #321 ) ;
#89 = FILL_AREA_STYLE_COLOUR ( '', #201 ) ;
#90 = PRESENTATION_STYLE_ASSIGNMENT (( #16 ) ) ;
#91 = CYLINDRICAL_SURFACE ( 'NONE', #230, 5.000000000000000900 ) ;
#92 = EDGE_CURVE ( 'NONE', #166, #242, #169, .T. ) ;
#93 = EDGE_LOOP ( 'NONE', ( #206 ) ) ;
#94 = FACE_OUTER_BOUND ( 'NONE', #100, .T. ) ;
#95 = CARTESIAN_POINT ( 'NONE',  ( 1.000000000000000900, 0.0000000000000000000, 0.0000000000000000000 ) ) ;
#96 = VERTEX_POINT ( 'NONE', #71 ) ;
#97 = ORIENTED_EDGE ( 'NONE', *, *, #304, .T. ) ;
#98 = CARTESIAN_POINT ( 'NONE',  ( 53.49999999999999300, 1.705935258377097300, 1.043927628825802400 ) ) ;
#99 = SURFACE_SIDE_STYLE ('',( #79 ) ) ;
#100 = EDGE_LOOP ( 'NONE', ( #97, #134, #8, #117, #259 ) ) ;
#101 = CARTESIAN_POINT ( 'NONE',  ( 53.67420637024934400, 1.754436311418858400, 1.286724846076185500 ) ) ;
#102 = DIRECTION ( 'NONE',  ( 0.0000000000000000000, 0.0000000000000000000, 1.000000000000000000 ) ) ;
#103 = FACE_OUTER_BOUND ( 'NONE', #105, .T. ) ;
#104 = PRODUCT_RELATED_PRODUCT_CATEGORY ( 'part', '', ( #80 ) ) ;
#105 = EDGE_LOOP ( 'NONE', ( #235 ) ) ;
#106 = DIRECTION ( 'NONE',  ( 0.0000000000000000000, 0.0000000000000000000, 1.000000000000000000 ) ) ;
#107 = DIRECTION ( 'NONE',  ( -1.000000000000000000, -0.0000000000000000000, -0.0000000000000000000 ) ) ;
#108 =( BOUNDED_CURVE ( )  B_SPLINE_CURVE ( 3, ( #68, #112, #109, #26 ),
 .UNSPECIFIED., .F., .F. ) 
 B_SPLINE_CURVE_WITH_KNOTS ( ( 4, 4 ),
 ( 1.503331010670452700, 1.721241819079972100 ),
 .UNSPECIFIED. ) 
 CURVE ( )  GEOMETRIC_REPRESENTATION_ITEM ( )  RATIONAL_B_SPLINE_CURVE ( ( 1.000000000000000000, 0.9960468197297736000, 0.9960468197297736000, 1.000000000000000000 ) ) 
 REPRESENTATION_ITEM ( '' )  );
#109 = CARTESIAN_POINT ( 'NONE',  ( 54.08366726678961800, 1.640712908673722900, 1.535356564095068600 ) ) ;
#110 = DIRECTION ( 'NONE',  ( -0.5000000000000001100, -0.7071067811865464600, 0.5000000000000016700 ) ) ;
#111 = CARTESIAN_POINT ( 'NONE',  ( 54.27258965637223300, -2.337482995096393800, -1.505028825797015900 ) ) ;
#112 = CARTESIAN_POINT ( 'NONE',  ( 54.40618256177901900, 1.493140697769794100, 1.649173236994756900 ) ) ;
#113 = AXIS2_PLACEMENT_3D ( 'NONE', #43, #258, #102 ) ;
#114 = CARTESIAN_POINT ( 'NONE',  ( 54.49999999999999300, 0.0000000000000000000, 0.0000000000000000000 ) ) ;
#115 = SURFACE_SIDE_STYLE ('',( #277 ) ) ;
#116 = DIRECTION ( 'NONE',  ( 1.000000000000000000, 0.0000000000000000000, 0.0000000000000000000 ) ) ;
#117 = ORIENTED_EDGE ( 'NONE', *, *, #312, .F. ) ;
#118 =( BOUNDED_CURVE ( )  B_SPLINE_CURVE ( 3, ( #98, #11, #172, #14 ),
 .UNSPECIFIED., .F., .F. ) 
 B_SPLINE_CURVE_WITH_KNOTS ( ( 4, 4 ),
 ( 5.087137925514754000, 7.266512482432706800 ),
 .UNSPECIFIED. ) 
 CURVE ( )  GEOMETRIC_REPRESENTATION_ITEM ( )  RATIONAL_B_SPLINE_CURVE ( ( 1.000000000000000000, 0.6418417410609721400, 0.6418417410609721400, 1.000000000000000000 ) ) 
 REPRESENTATION_ITEM ( '' )  );
#119 = EDGE_CURVE ( 'NONE', #229, #242, #275, .T. ) ;
#120 = EDGE_LOOP ( 'NONE', ( #276, #257, #219, #30 ) ) ;
#121 = EDGE_LOOP ( 'NONE', ( #173, #171, #196 ) ) ;
#122 = AXIS2_PLACEMENT_3D ( 'NONE', #64, #213, #2 ) ;
#123 = CARTESIAN_POINT ( 'NONE',  ( 53.49999999999999300, 1.705935258377097300, 1.043927628825802400 ) ) ;
#124 = ORIENTED_EDGE ( 'NONE', *, *, #119, .T. ) ;
#125 = CARTESIAN_POINT ( 'NONE',  ( 54.07356339282814200, -2.564982357687430400, -0.2938440138825481100 ) ) ;
#126 = MECHANICAL_DESIGN_GEOMETRIC_PRESENTATION_REPRESENTATION (  '', ( #36 ), #222 ) ;
#127 = CARTESIAN_POINT ( 'NONE',  ( 53.65319885043381000, 0.9029026565826274700, 1.965965964215458800 ) ) ;
#128 = TOROIDAL_SURFACE ( 'NONE', #88, 4.000000000000000000, 1.000000000000000400 ) ;
#129 = CARTESIAN_POINT ( 'NONE',  ( 53.71156708078915900, 1.457426969396048700, 1.676391479420891600 ) ) ;
#130 = CARTESIAN_POINT ( 'NONE',  ( 24.93431457505067100, 0.0000000000000000000, -29.93431457505075600 ) ) ;
#131 = CARTESIAN_POINT ( 'NONE',  ( 56.00000000000000000, 0.0000000000000000000, -3.000000000000071500 ) ) ;
#132 = CARTESIAN_POINT ( 'NONE',  ( 54.35591940863676500, -2.010340264625386700, -2.039039845882606400 ) ) ;
#133 = EDGE_CURVE ( 'NONE', #19, #55, #65, .T. ) ;
#134 = ORIENTED_EDGE ( 'NONE', *, *, #282, .T. ) ;
#135 = CARTESIAN_POINT ( 'NONE',  ( 54.44068257264079600, -1.391863650265868600, -2.598751609778255500 ) ) ;
#136 = CARTESIAN_POINT ( 'NONE',  ( 55.12693861120628500, 0.0000000000000000000, 0.2583094611047619900 ) ) ;
#137 = CARTESIAN_POINT ( 'NONE',  ( 54.21034035002571700, -2.478057522363077400, -1.116629233478957200 ) ) ;
#138 = CARTESIAN_POINT ( 'NONE',  ( 0.0000000000000000000, 0.0000000000000000000, 0.0000000000000000000 ) ) ;
#139 = CARTESIAN_POINT ( 'NONE',  ( 1.000000000000000900, 0.0000000000000000000, 5.000000000000000900 ) ) ;
#140 = ORIENTED_EDGE ( 'NONE', *, *, #280, .F. ) ;
#141 = CARTESIAN_POINT ( 'NONE',  ( 27.99999999999999600, 0.0000000000000000000, 2.500000000000000000 ) ) ;
#142 = LINE ( 'NONE', #187, #255 ) ;
#143 = ORIENTED_EDGE ( 'NONE', *, *, #74, .F. ) ;
#144 = EDGE_LOOP ( 'NONE', ( #13 ) ) ;
#145 = AXIS2_PLACEMENT_3D ( 'NONE', #50, #293, #106 ) ;
#146 = VERTEX_POINT ( 'NONE', #141 ) ;
#147 = ADVANCED_BREP_SHAPE_REPRESENTATION ( 'U10.B06.002.028', ( #77, #263 ), #192 ) ;
#148 = FACE_OUTER_BOUND ( 'NONE', #245, .T. ) ;
#149 = ORIENTED_EDGE ( 'NONE', *, *, #119, .F. ) ;
#150 = EDGE_CURVE ( 'NONE', #19, #166, #211, .T. ) ;
#151 = DIRECTION ( 'NONE',  ( 0.0000000000000000000, 0.0000000000000000000, -1.000000000000000000 ) ) ;
#152 = CARTESIAN_POINT ( 'NONE',  ( 53.76452031879041700, 1.775033629930165700, 1.406167801804468800 ) ) ;
#153 =( NAMED_UNIT ( * ) PLANE_ANGLE_UNIT ( ) SI_UNIT ( $, .RADIAN. ) );
#154 = CARTESIAN_POINT ( 'NONE',  ( 53.66973702410807300, 1.094569905857891300, 1.884947820376783800 ) ) ;
#155 = CARTESIAN_POINT ( 'NONE',  ( 54.47014288629008400, -0.2440349197220504100, 2.709504476686158900 ) ) ;
#156 = ADVANCED_FACE ( 'NONE', ( #185 ), #3, .F. ) ;
#157 = CIRCLE ( 'NONE', #113, 2.000000000000000000 ) ;
#158 = CARTESIAN_POINT ( 'NONE',  ( 53.69452849686105400, -1.325168208214869000, 1.761729372309827700 ) ) ;
#159 = ADVANCED_FACE ( 'NONE', ( #72 ), #210, .F. ) ;
#160 = CARTESIAN_POINT ( 'NONE',  ( 54.72824132045563800, 1.334067135876117600, 1.746268007026343000 ) ) ;
#161 = AXIS2_PLACEMENT_3D ( 'NONE', #78, #107, #208 ) ;
#162 = CARTESIAN_POINT ( 'NONE',  ( 54.42244407144743000, -1.565063982305693100, -2.476791470129172000 ) ) ;
#163 = CARTESIAN_POINT ( 'NONE',  ( 54.46990891799796900, -1.024532293106842800, -2.795330556268483100 ) ) ;
#164 = VERTEX_POINT ( 'NONE', #139 ) ;
#165 = DIRECTION ( 'NONE',  ( -1.000000000000000000, -0.0000000000000000000, -0.0000000000000000000 ) ) ;
#166 = VERTEX_POINT ( 'NONE', #254 ) ;
#167 = PRODUCT_DEFINITION_CONTEXT ( 'detailed design', #251, 'design' ) ;
#168 = COLOUR_RGB ( '',1.000000000000000000, 1.000000000000000000, 0.5019607843137254800 ) ;
#169 = LINE ( 'NONE', #317, #6 ) ;
#170 = AXIS2_PLACEMENT_3D ( 'NONE', #95, #278, #246 ) ;
#171 = ORIENTED_EDGE ( 'NONE', *, *, #51, .T. ) ;
#172 = CARTESIAN_POINT ( 'NONE',  ( 50.23371722627899100, 1.817877604878501300, -2.064044760269037900 ) ) ;
#173 = ORIENTED_EDGE ( 'NONE', *, *, #56, .T. ) ;
#174 = ORIENTED_EDGE ( 'NONE', *, *, #92, .T. ) ;
#175 = AXIS2_PLACEMENT_3D ( 'NONE', #82, #268, #294 ) ;
#176 = DIRECTION ( 'NONE',  ( -1.000000000000000000, -0.0000000000000000000, -0.0000000000000000000 ) ) ;
#177 = PRESENTATION_LAYER_ASSIGNMENT (  '', '', ( #36 ) ) ;
#178 = CARTESIAN_POINT ( 'NONE',  ( 53.64256488444154100, -0.7498786879216727800, 2.017887042517021000 ) ) ;
#179 = CARTESIAN_POINT ( 'NONE',  ( 55.12822626981623800, -2.465096099422213500, 0.2535038537496489000 ) ) ;
#180 = VERTEX_POINT ( 'NONE', #136 ) ;
#181 = CARTESIAN_POINT ( 'NONE',  ( 53.49999999999999300, 0.0000000000000000000, -1.999999999999998700 ) ) ;
#182 = DIRECTION ( 'NONE',  ( 1.000000000000000000, 0.0000000000000000000, 0.0000000000000000000 ) ) ;
#183 = AXIS2_PLACEMENT_3D ( 'NONE', #184, #110, #47 ) ;
#184 = CARTESIAN_POINT ( 'NONE',  ( 19.63067258709323300, 7.500482429340849000, -24.63067258709330100 ) ) ;
#185 = FACE_OUTER_BOUND ( 'NONE', #302, .T. ) ;
#186 = CARTESIAN_POINT ( 'NONE',  ( 54.49620898019652100, -0.4194351844057773700, -2.974068265952968900 ) ) ;
#187 = CARTESIAN_POINT ( 'NONE',  ( 24.93431457505067100, 0.0000000000000000000, -29.93431457505075600 ) ) ;
#188 =( LENGTH_UNIT ( ) NAMED_UNIT ( * ) SI_UNIT ( .MILLI., .METRE. ) );
#189 = FACE_OUTER_BOUND ( 'NONE', #93, .T. ) ;
#190 = EDGE_LOOP ( 'NONE', ( #310 ) ) ;
#191 = FACE_BOUND ( 'NONE', #67, .T. ) ;
#192 =( GEOMETRIC_REPRESENTATION_CONTEXT ( 3 ) GLOBAL_UNCERTAINTY_ASSIGNED_CONTEXT ( ( #57 ) ) GLOBAL_UNIT_ASSIGNED_CONTEXT ( ( #221, #244, #271 ) ) REPRESENTATION_CONTEXT ( 'NONE', 'WORKASPACE' ) );
#193 = DIRECTION ( 'NONE',  ( 0.7071067811865487900, -0.0000000000000000000, 0.7071067811865463500 ) ) ;
#194 = AXIS2_PLACEMENT_3D ( 'NONE', #37, #250, #151 ) ;
#195 = CONICAL_SURFACE ( 'NONE', #21, 3.000000000000000000, 0.7853981633974479500 ) ;
#196 = ORIENTED_EDGE ( 'NONE', *, *, #209, .T. ) ;
#197 = VERTEX_POINT ( 'NONE', #181 ) ;
#198 = ORIENTED_EDGE ( 'NONE', *, *, #267, .T. ) ;
#199 = PRESENTATION_LAYER_ASSIGNMENT (  '', '', ( #224 ) ) ;
#200 =( LENGTH_UNIT ( ) NAMED_UNIT ( * ) SI_UNIT ( .MILLI., .METRE. ) );
#201 = COLOUR_RGB ( '',1.000000000000000000, 1.000000000000000000, 0.5019607843137254800 ) ;
#202 = CARTESIAN_POINT ( 'NONE',  ( 55.99999999999997900, -1.848845746503983600, -2.999999999999991600 ) ) ;
#203 = CARTESIAN_POINT ( 'NONE',  ( 54.00200459738516700, -2.507589359275458600, 0.1194691316711261200 ) ) ;
#204 = AXIS2_PLACEMENT_3D ( 'NONE', #309, #176, #34 ) ;
#205 = CARTESIAN_POINT ( 'NONE',  ( 0.0000000000000000000, 0.0000000000000000000, 0.0000000000000000000 ) ) ;
#206 = ORIENTED_EDGE ( 'NONE', *, *, #249, .F. ) ;
#207 = EDGE_LOOP ( 'NONE', ( #124, #218, #143 ) ) ;
#208 = DIRECTION ( 'NONE',  ( 0.0000000000000000000, 0.0000000000000000000, 1.000000000000000000 ) ) ;
#209 = EDGE_CURVE ( 'NONE', #197, #55, #157, .T. ) ;
#210 = PLANE ( 'NONE',  #175 ) ;
#211 = B_SPLINE_CURVE_WITH_KNOTS ( 'NONE', 3,
 ( #59, #284, #129, #154, #127, #17, #261, #318, #39, #178, #41, #158, #236, #62, #58, #20, #232, #76, #203, #125, #24, #83, #137, #111, #292, #132, #66, #162, #135, #163, #296, #186, #23, #25 ),
 .UNSPECIFIED., .F., .F.,
 ( 4, 2, 2, 2, 2, 2, 2, 2, 2, 2, 2, 2, 2, 2, 2, 2, 4 ),
 ( 0.0003686382274845981800, 0.0009950766417051589700, 0.001621515055925719600, 0.002247953470146280400, 0.002874391884366841500, 0.003500830298587403000, 0.004127268712807963600, 0.004753707127028525100, 0.005380145541249085700, 0.006006583955469647200, 0.006633022369690207800, 0.007259460783910768500, 0.007885899198131329100, 0.008512337612351889700, 0.009138776026572450300, 0.009765214440793011000, 0.01039165285501357200 ),
 .UNSPECIFIED. ) ;
#212 = APPLICATION_CONTEXT ( 'automotive_design' ) ;
#213 = DIRECTION ( 'NONE',  ( -1.000000000000000000, -0.0000000000000000000, -0.0000000000000000000 ) ) ;
#214 = CYLINDRICAL_SURFACE ( 'NONE', #194, 2.560621848741250000 ) ;
#215 = PRODUCT_DEFINITION_FORMATION_WITH_SPECIFIED_SOURCE ( 'ANY', '', #80, .NOT_KNOWN. ) ;
#216 = CARTESIAN_POINT ( 'NONE',  ( 26.55662432702592200, 0.0000000000000000000, 5.000000000000000000 ) ) ;
#217 = CONICAL_SURFACE ( 'NONE', #231, 2.000000000000000000, 0.01960533085720469300 ) ;
#218 = ORIENTED_EDGE ( 'NONE', *, *, #282, .F. ) ;
#219 = ORIENTED_EDGE ( 'NONE', *, *, #209, .F. ) ;
#220 = VECTOR ( 'NONE', #75, 1000.000000000000000 ) ;
#221 =( LENGTH_UNIT ( ) NAMED_UNIT ( * ) SI_UNIT ( .MILLI., .METRE. ) );
#222 =( GEOMETRIC_REPRESENTATION_CONTEXT ( 3 ) GLOBAL_UNCERTAINTY_ASSIGNED_CONTEXT ( ( #223 ) ) GLOBAL_UNIT_ASSIGNED_CONTEXT ( ( #200, #153, #283 ) ) REPRESENTATION_CONTEXT ( 'NONE', 'WORKASPACE' ) );
#223 = UNCERTAINTY_MEASURE_WITH_UNIT (LENGTH_MEASURE( 1.000000000000000100E-005 ), #200, 'distance_accuracy_value', 'NONE');
#224 = STYLED_ITEM ( 'NONE', ( #228 ), #147 ) ;
#225 = CIRCLE ( 'NONE', #161, 4.000000000000000000 ) ;
#226 = VECTOR ( 'NONE', #281, 1000.000000000000000 ) ;
#227 = APPLICATION_PROTOCOL_DEFINITION ( 'draft international standard', 'automotive_design', 1998, #251 ) ;
#228 = PRESENTATION_STYLE_ASSIGNMENT (( #7 ) ) ;
#229 = VERTEX_POINT ( 'NONE', #1 ) ;
#230 = AXIS2_PLACEMENT_3D ( 'NONE', #266, #165, #84 ) ;
#231 = AXIS2_PLACEMENT_3D ( 'NONE', #272, #28, #299 ) ;
#232 = CARTESIAN_POINT ( 'NONE',  ( 53.89746795827092300, -2.301348072767247300, 0.7022189007289667600 ) ) ;
#233 = LINE ( 'NONE', #301, #85 ) ;
#234 = DIRECTION ( 'NONE',  ( 0.0000000000000000000, 0.0000000000000000000, -1.000000000000000000 ) ) ;
#235 = ORIENTED_EDGE ( 'NONE', *, *, #15, .T. ) ;
#236 = CARTESIAN_POINT ( 'NONE',  ( 53.71738365168493300, -1.498569193755143300, 1.647372482706344100 ) ) ;
#237 = ORIENTED_EDGE ( 'NONE', *, *, #133, .F. ) ;
#238 = DIRECTION ( 'NONE',  ( 0.0000000000000000000, 0.0000000000000000000, -1.000000000000000000 ) ) ;
#239 = ADVANCED_FACE ( 'NONE', ( #94 ), #288, .F. ) ;
#240 = EDGE_LOOP ( 'NONE', ( #149, #198, #247, #174 ) ) ;
#241 = VERTEX_POINT ( 'NONE', #216 ) ;
#242 = VERTEX_POINT ( 'NONE', #131 ) ;
#243 = MECHANICAL_DESIGN_GEOMETRIC_PRESENTATION_REPRESENTATION (  '', ( #224 ), #69 ) ;
#244 =( NAMED_UNIT ( * ) PLANE_ANGLE_UNIT ( ) SI_UNIT ( $, .RADIAN. ) );
#245 = EDGE_LOOP ( 'NONE', ( #140 ) ) ;
#246 = DIRECTION ( 'NONE',  ( 0.0000000000000000000, 0.0000000000000000000, 1.000000000000000000 ) ) ;
#247 = ORIENTED_EDGE ( 'NONE', *, *, #150, .T. ) ;
#248 = UNCERTAINTY_MEASURE_WITH_UNIT (LENGTH_MEASURE( 1.000000000000000100E-005 ), #188, 'distance_accuracy_value', 'NONE');
#249 = EDGE_CURVE ( 'NONE', #146, #146, #279, .T. ) ;
#250 = DIRECTION ( 'NONE',  ( 1.000000000000000000, -0.0000000000000000000, -0.0000000000000000000 ) ) ;
#251 = APPLICATION_CONTEXT ( 'automotive_design' ) ;
#252 = DIRECTION ( 'NONE',  ( 1.000000000000000000, 0.0000000000000000000, 0.0000000000000000000 ) ) ;
#253 = ADVANCED_FACE ( 'NONE', ( #54, #12 ), #91, .T. ) ;
#254 = CARTESIAN_POINT ( 'NONE',  ( 54.49999999999998600, -2.958228394578794300E-028, -2.999999999999991600 ) ) ;
#255 = VECTOR ( 'NONE', #193, 999.9999999999998900 ) ;
#256 = CARTESIAN_POINT ( 'NONE',  ( 55.60514188089651100, -2.965377680796145800, -1.526369437724738100 ) ) ;
#257 = ORIENTED_EDGE ( 'NONE', *, *, #133, .T. ) ;
#258 = DIRECTION ( 'NONE',  ( -1.000000000000000000, -0.0000000000000000000, -0.0000000000000000000 ) ) ;
#259 = ORIENTED_EDGE ( 'NONE', *, *, #51, .F. ) ;
#260 = ADVANCED_FACE ( 'NONE', ( #27, #9 ), #128, .T. ) ;
#261 = CARTESIAN_POINT ( 'NONE',  ( 53.62286541864254000, 0.2892907127135525600, 2.113413412171860600 ) ) ;
#262 = CARTESIAN_POINT ( 'NONE',  ( 60.65257231327900200, 0.0000000000000000000, -20.36363625904603900 ) ) ;
#263 = AXIS2_PLACEMENT_3D ( 'NONE', #138, #269, #116 ) ;
#264 = DIRECTION ( 'NONE',  ( 0.0000000000000000000, 0.0000000000000000000, -1.000000000000000000 ) ) ;
#265 = EDGE_LOOP ( 'NONE', ( #305 ) ) ;
#266 = CARTESIAN_POINT ( 'NONE',  ( -79.66162912480135100, 0.0000000000000000000, 0.0000000000000000000 ) ) ;
#267 = EDGE_CURVE ( 'NONE', #229, #19, #108, .T. ) ;
#268 = DIRECTION ( 'NONE',  ( -0.9659258262890700900, 0.0000000000000000000, -0.2588190451025141900 ) ) ;
#269 = DIRECTION ( 'NONE',  ( 0.0000000000000000000, 0.0000000000000000000, 1.000000000000000000 ) ) ;
#270 = AXIS2_PLACEMENT_3D ( 'NONE', #205, #45, #238 ) ;
#271 =( NAMED_UNIT ( * ) SI_UNIT ( $, .STERADIAN. ) SOLID_ANGLE_UNIT ( ) );
#272 = CARTESIAN_POINT ( 'NONE',  ( 53.49999999999999300, 0.0000000000000000000, 0.0000000000000000000 ) ) ;
#273 =( NAMED_UNIT ( * ) SI_UNIT ( $, .STERADIAN. ) SOLID_ANGLE_UNIT ( ) );
#274 = EDGE_LOOP ( 'NONE', ( #61 ) ) ;
#275 =( BOUNDED_CURVE ( )  B_SPLINE_CURVE ( 3, ( #160, #155, #18, #179, #256, #202, #316 ),
 .UNSPECIFIED., .F., .F. ) 
 B_SPLINE_CURVE_WITH_KNOTS ( ( 4, 3, 4 ),
 ( 2.593578261043846900, 4.438381784111716600, 6.283185307179586200 ),
 .UNSPECIFIED. ) 
 CURVE ( )  GEOMETRIC_REPRESENTATION_ITEM ( )  RATIONAL_B_SPLINE_CURVE ( ( 1.000000000000000000, 0.7359383771932416200, 0.7359383771932416200, 1.000000000000000000, 0.7359383771932416200, 0.7359383771932416200, 1.000000000000000000 ) ) 
 REPRESENTATION_ITEM ( '' )  );
#276 = ORIENTED_EDGE ( 'NONE', *, *, #150, .F. ) ;
#277 = SURFACE_STYLE_FILL_AREA ( #29 ) ;
#278 = DIRECTION ( 'NONE',  ( -1.000000000000000000, -0.0000000000000000000, -0.0000000000000000000 ) ) ;
#279 = CIRCLE ( 'NONE', #145, 2.500000000000000000 ) ;
#280 = EDGE_CURVE ( 'NONE', #241, #241, #308, .T. ) ;
#281 = DIRECTION ( 'NONE',  ( 0.9998078216567245500, 0.0000000000000000000, 0.01960407493444558900 ) ) ;
#282 = EDGE_CURVE ( 'NONE', #180, #242, #32, .T. ) ;
#283 =( NAMED_UNIT ( * ) SI_UNIT ( $, .STERADIAN. ) SOLID_ANGLE_UNIT ( ) );
#284 = CARTESIAN_POINT ( 'NONE',  ( 53.73667626820859800, 1.625826884859279000, 1.549673841236136600 ) ) ;
#285 = CARTESIAN_POINT ( 'NONE',  ( 155.4999999999999700, 0.0000000000000000000, 0.0000000000000000000 ) ) ;
#286 = CARTESIAN_POINT ( 'NONE',  ( 53.76452031879041700, 1.775033629930165700, 1.406167801804468800 ) ) ;
#287 = CARTESIAN_POINT ( 'NONE',  ( 53.58576926256726800, 1.731703522563099500, 1.166138720083731900 ) ) ;
#288 = PLANE ( 'NONE',  #295 ) ;
#289 = ADVANCED_FACE ( 'NONE', ( #103 ), #49, .F. ) ;
#290 = ORIENTED_EDGE ( 'NONE', *, *, #249, .T. ) ;
#291 = ORIENTED_EDGE ( 'NONE', *, *, #74, .T. ) ;
#292 = CARTESIAN_POINT ( 'NONE',  ( 54.30205065973429200, -2.242949648811817500, -1.692199922188632600 ) ) ;
#293 = DIRECTION ( 'NONE',  ( -1.000000000000000000, -0.0000000000000000000, -0.0000000000000000000 ) ) ;
#294 = DIRECTION ( 'NONE',  ( -0.2588190451025141900, 0.0000000000000000000, 0.9659258262890700900 ) ) ;
#295 = AXIS2_PLACEMENT_3D ( 'NONE', #130, #60, #234 ) ;
#296 = CARTESIAN_POINT ( 'NONE',  ( 54.48125201001148100, -0.8254294700946754900, -2.872328220895471200 ) ) ;
#297 = DIRECTION ( 'NONE',  ( 0.2588190451025141300, 0.0000000000000000000, -0.9659258262890700900 ) ) ;
#298 = DIRECTION ( 'NONE',  ( 0.7071067811865479100, 0.0000000000000000000, -0.7071067811865472400 ) ) ;
#299 = DIRECTION ( 'NONE',  ( 0.0000000000000000000, 0.0000000000000000000, 1.000000000000000000 ) ) ;
#300 = ADVANCED_FACE ( 'NONE', ( #320 ), #195, .T. ) ;
#301 = CARTESIAN_POINT ( 'NONE',  ( 51.49999999999999300, 0.0000000000000000000, 0.0000000000000000000 ) ) ;
#302 = EDGE_LOOP ( 'NONE', ( #48, #291, #42, #22, #237 ) ) ;
#303 = LINE ( 'NONE', #285, #226 ) ;
#304 = EDGE_CURVE ( 'NONE', #31, #180, #142, .T. ) ;
#305 = ORIENTED_EDGE ( 'NONE', *, *, #46, .F. ) ;
#306 = FACE_OUTER_BOUND ( 'NONE', #240, .T. ) ;
#307 = FACE_BOUND ( 'NONE', #121, .T. ) ;
#308 = CIRCLE ( 'NONE', #122, 5.000000000000000000 ) ;
#309 = CARTESIAN_POINT ( 'NONE',  ( 27.99999999999999600, 0.0000000000000000000, 0.0000000000000000000 ) ) ;
#310 = ORIENTED_EDGE ( 'NONE', *, *, #15, .F. ) ;
#311 = CARTESIAN_POINT ( 'NONE',  ( 56.36308684794090600, -4.136232615461089800, -4.355058564075607200 ) ) ;
#312 = EDGE_CURVE ( 'NONE', #197, #166, #233, .T. ) ;
#313 = FILL_AREA_STYLE ('',( #38 ) ) ;
#314 = CONICAL_SURFACE ( 'NONE', #204, 2.500000000000000000, 1.047197551196594300 ) ;
#315 = PRODUCT_CONTEXT ( 'NONE', #212, 'mechanical' ) ;
#316 = CARTESIAN_POINT ( 'NONE',  ( 56.00000000000000000, 0.0000000000000000000, -3.000000000000071500 ) ) ;
#317 = CARTESIAN_POINT ( 'NONE',  ( -79.66162912480135100, 0.0000000000000000000, -2.999999999999999600 ) ) ;
#318 = CARTESIAN_POINT ( 'NONE',  ( 53.62014586581830900, -0.1283527891645126500, 2.126544576396646400 ) ) ;
#319 = ADVANCED_FACE ( 'NONE', ( #189, #307 ), #217, .T. ) ;
#320 = FACE_OUTER_BOUND ( 'NONE', #120, .T. ) ;
#321 = DIRECTION ( 'NONE',  ( 0.0000000000000000000, 0.0000000000000000000, 1.000000000000000000 ) ) ;
ENDSEC;
END-ISO-10303-21;
