ISO-10303-21;
HEADER;
FILE_DESCRIPTION (( 'STEP AP214' ),
    '1' );
FILE_NAME ('U10.B06.001.028.STEP',
    '2020-10-01T11:35:27',
    ( '' ),
    ( '' ),
    'SwSTEP 2.0',
    'SolidWorks 2017',
    '' );
FILE_SCHEMA (( 'AUTOMOTIVE_DESIGN' ));
ENDSEC;

DATA;
#1 = FACE_OUTER_BOUND ( 'NONE', #161, .T. ) ;
#2 = VERTEX_POINT ( 'NONE', #31 ) ;
#3 = VERTEX_POINT ( 'NONE', #263 ) ;
#4 = CARTESIAN_POINT ( 'NONE',  ( 54.47014288629008400, -0.2440349197220504100, 2.709504476686158900 ) ) ;
#5 = DIRECTION ( 'NONE',  ( 1.000000000000000000, -0.0000000000000000000, -0.0000000000000000000 ) ) ;
#6 = CARTESIAN_POINT ( 'NONE',  ( 53.62421844339377200, -0.3414564507327166900, 2.106967813333263000 ) ) ;
#7 = APPLICATION_PROTOCOL_DEFINITION ( 'draft international standard', 'automotive_design', 1998, #305 ) ;
#8 =( LENGTH_UNIT ( ) NAMED_UNIT ( * ) SI_UNIT ( .MILLI., .METRE. ) );
#9 = FACE_BOUND ( 'NONE', #321, .T. ) ;
#10 = PRODUCT_CONTEXT ( 'NONE', #154, 'mechanical' ) ;
#11 = EDGE_LOOP ( 'NONE', ( #114 ) ) ;
#12 = CARTESIAN_POINT ( 'NONE',  ( 53.65319885043381000, 0.9029026565826274700, 1.965965964215458800 ) ) ;
#13 = CARTESIAN_POINT ( 'NONE',  ( 54.49999999999998600, -2.958228394578794300E-028, -2.999999999999991600 ) ) ;
#14 = CARTESIAN_POINT ( 'NONE',  ( 53.49999999999999300, 0.0000000000000000000, 0.0000000000000000000 ) ) ;
#15 = VERTEX_POINT ( 'NONE', #222 ) ;
#16 = DIRECTION ( 'NONE',  ( 0.0000000000000000000, 0.0000000000000000000, -1.000000000000000000 ) ) ;
#17 = CARTESIAN_POINT ( 'NONE',  ( 54.72824132045563800, 1.334067135876117600, 1.746268007026343000 ) ) ;
#18 = DIRECTION ( 'NONE',  ( 1.000000000000000000, 0.0000000000000000000, 0.0000000000000000000 ) ) ;
#19 = EDGE_LOOP ( 'NONE', ( #273 ) ) ;
#20 = EDGE_CURVE ( 'NONE', #27, #54, #291, .T. ) ;
#21 = FACE_OUTER_BOUND ( 'NONE', #124, .T. ) ;
#22 = VERTEX_POINT ( 'NONE', #289 ) ;
#23 = EDGE_CURVE ( 'NONE', #27, #3, #197, .T. ) ;
#24 = UNCERTAINTY_MEASURE_WITH_UNIT (LENGTH_MEASURE( 1.000000000000000100E-005 ), #8, 'distance_accuracy_value', 'NONE');
#25 = CARTESIAN_POINT ( 'NONE',  ( 53.66973702410807300, 1.094569905857891300, 1.884947820376783800 ) ) ;
#26 = FACE_OUTER_BOUND ( 'NONE', #46, .T. ) ;
#27 = VERTEX_POINT ( 'NONE', #189 ) ;
#28 = ORIENTED_EDGE ( 'NONE', *, *, #20, .F. ) ;
#29 = CARTESIAN_POINT ( 'NONE',  ( 53.62286541864254000, 0.2892907127135525600, 2.113413412171860600 ) ) ;
#30 = FILL_AREA_STYLE ('',( #178 ) ) ;
#31 = CARTESIAN_POINT ( 'NONE',  ( 0.0000000000000000000, 0.0000000000000000000, 4.000000000000000000 ) ) ;
#32 = CARTESIAN_POINT ( 'NONE',  ( 53.86329622598282900, -2.199966032643076100, 0.8871185527461461500 ) ) ;
#33 = CARTESIAN_POINT ( 'NONE',  ( 53.76452031879041700, 1.775033629930165700, 1.406167801804468800 ) ) ;
#34 = DIRECTION ( 'NONE',  ( 1.000000000000000000, 0.0000000000000000000, 0.0000000000000000000 ) ) ;
#35 = CARTESIAN_POINT ( 'NONE',  ( 24.93431457505067100, 0.0000000000000000000, -29.93431457505075600 ) ) ;
#36 = ORIENTED_EDGE ( 'NONE', *, *, #218, .F. ) ;
#37 = CYLINDRICAL_SURFACE ( 'NONE', #314, 5.000000000000000900 ) ;
#38 = ORIENTED_EDGE ( 'NONE', *, *, #20, .T. ) ;
#39 = FILL_AREA_STYLE_COLOUR ( '', #264 ) ;
#40 = PLANE ( 'NONE',  #145 ) ;
#41 = ADVANCED_FACE ( 'NONE', ( #43, #141 ), #37, .T. ) ;
#42 = DIRECTION ( 'NONE',  ( -1.000000000000000000, -0.0000000000000000000, -0.0000000000000000000 ) ) ;
#43 = FACE_OUTER_BOUND ( 'NONE', #299, .T. ) ;
#44 = ADVANCED_BREP_SHAPE_REPRESENTATION ( 'U10.B06.001.028', ( #143, #176 ), #217 ) ;
#45 = ADVANCED_FACE ( 'NONE', ( #123 ), #66, .F. ) ;
#46 = EDGE_LOOP ( 'NONE', ( #47, #311, #101, #301, #71 ) ) ;
#47 = ORIENTED_EDGE ( 'NONE', *, *, #144, .T. ) ;
#48 = CARTESIAN_POINT ( 'NONE',  ( 50.23371722627899100, 1.817877604878501300, -2.064044760269037900 ) ) ;
#49 = DIRECTION ( 'NONE',  ( 0.2588190451025141300, 0.0000000000000000000, -0.9659258262890700900 ) ) ;
#50 = CARTESIAN_POINT ( 'NONE',  ( 56.00000000000000000, 0.0000000000000000000, -3.000000000000071500 ) ) ;
#51 = PRESENTATION_STYLE_ASSIGNMENT (( #60 ) ) ;
#52 = CARTESIAN_POINT ( 'NONE',  ( 60.65257231327900200, 0.0000000000000000000, -20.36363625904603900 ) ) ;
#53 = DIRECTION ( 'NONE',  ( 0.0000000000000000000, 0.0000000000000000000, 1.000000000000000000 ) ) ;
#54 = VERTEX_POINT ( 'NONE', #118 ) ;
#55 = CLOSED_SHELL ( 'NONE', ( #193, #290, #45, #286, #41, #195, #69, #261, #293, #165 ) ) ;
#56 = CARTESIAN_POINT ( 'NONE',  ( 53.50000000000000000, 0.0000000000000000000, -0.4393781512587416300 ) ) ;
#57 = CARTESIAN_POINT ( 'NONE',  ( 53.80008298043828300, -1.958914221400294400, 1.222578263246410600 ) ) ;
#58 = DIRECTION ( 'NONE',  ( 0.0000000000000000000, 0.0000000000000000000, 1.000000000000000000 ) ) ;
#59 = VERTEX_POINT ( 'NONE', #278 ) ;
#60 = SURFACE_STYLE_USAGE ( .BOTH. , #203 ) ;
#61 =( LENGTH_UNIT ( ) NAMED_UNIT ( * ) SI_UNIT ( .MILLI., .METRE. ) );
#62 = CARTESIAN_POINT ( 'NONE',  ( 53.96677317454528100, -2.454573839809728300, 0.3185888968761194100 ) ) ;
#63 = CARTESIAN_POINT ( 'NONE',  ( 54.42244407144743000, -1.565063982305693100, -2.476791470129172000 ) ) ;
#64 = CARTESIAN_POINT ( 'NONE',  ( 155.4999999999999700, 0.0000000000000000000, 0.0000000000000000000 ) ) ;
#65 = DIRECTION ( 'NONE',  ( 0.0000000000000000000, 0.0000000000000000000, 1.000000000000000000 ) ) ;
#66 = PLANE ( 'NONE',  #73 ) ;
#67 = FACE_OUTER_BOUND ( 'NONE', #127, .T. ) ;
#68 = DIRECTION ( 'NONE',  ( -0.2588190451025141900, 0.0000000000000000000, 0.9659258262890700900 ) ) ;
#69 = ADVANCED_FACE ( 'NONE', ( #300, #232 ), #167, .T. ) ;
#70 = LINE ( 'NONE', #236, #191 ) ;
#71 = ORIENTED_EDGE ( 'NONE', *, *, #256, .F. ) ;
#72 = PRODUCT ( 'U10.B06.001.028', 'U10.B06.001.028', '', ( #10 ) ) ;
#73 = AXIS2_PLACEMENT_3D ( 'NONE', #257, #116, #316 ) ;
#74 = CYLINDRICAL_SURFACE ( 'NONE', #239, 2.560621848741250000 ) ;
#75 = ORIENTED_EDGE ( 'NONE', *, *, #244, .T. ) ;
#76 = VECTOR ( 'NONE', #34, 1000.000000000000000 ) ;
#77 = CARTESIAN_POINT ( 'NONE',  ( 54.08366726678961800, 1.640712908673722900, 1.535356564095068600 ) ) ;
#78 = CARTESIAN_POINT ( 'NONE',  ( 53.77022750030142400, -1.816356885022306000, 1.377510811517380400 ) ) ;
#79 =( NAMED_UNIT ( * ) PLANE_ANGLE_UNIT ( ) SI_UNIT ( $, .RADIAN. ) );
#80 = CARTESIAN_POINT ( 'NONE',  ( 53.89746795827092300, -2.301348072767247300, 0.7022189007289667600 ) ) ;
#81 = CIRCLE ( 'NONE', #99, 4.000000000000000000 ) ;
#82 = VECTOR ( 'NONE', #121, 999.9999999999998900 ) ;
#83 = CARTESIAN_POINT ( 'NONE',  ( 54.72824132045563800, 1.334067135876117600, 1.746268007026343000 ) ) ;
#84 = CARTESIAN_POINT ( 'NONE',  ( 54.46990891799796900, -1.024532293106842800, -2.795330556268483100 ) ) ;
#85 =( BOUNDED_CURVE ( )  B_SPLINE_CURVE ( 3, ( #138, #317, #48, #125 ),
 .UNSPECIFIED., .F., .F. ) 
 B_SPLINE_CURVE_WITH_KNOTS ( ( 4, 4 ),
 ( 5.087137925514754000, 7.266512482432706800 ),
 .UNSPECIFIED. ) 
 CURVE ( )  GEOMETRIC_REPRESENTATION_ITEM ( )  RATIONAL_B_SPLINE_CURVE ( ( 1.000000000000000000, 0.6418417410609721400, 0.6418417410609721400, 1.000000000000000000 ) ) 
 REPRESENTATION_ITEM ( '' )  );
#86 = DIRECTION ( 'NONE',  ( 0.0000000000000000000, 0.0000000000000000000, -1.000000000000000000 ) ) ;
#87 = PRESENTATION_LAYER_ASSIGNMENT (  '', '', ( #271 ) ) ;
#88 = CIRCLE ( 'NONE', #155, 2.500000000000000000 ) ;
#89 = VERTEX_POINT ( 'NONE', #17 ) ;
#90 = DIRECTION ( 'NONE',  ( 0.0000000000000000000, 0.0000000000000000000, 1.000000000000000000 ) ) ;
#91 = CARTESIAN_POINT ( 'NONE',  ( 53.76452031879041700, 1.775033629930165700, 1.406167801804468800 ) ) ;
#92 = DIRECTION ( 'NONE',  ( -1.000000000000000000, -0.0000000000000000000, -0.0000000000000000000 ) ) ;
#93 = AXIS2_PLACEMENT_3D ( 'NONE', #320, #92, #285 ) ;
#94 = CARTESIAN_POINT ( 'NONE',  ( 51.49999999999999300, 0.0000000000000000000, 0.0000000000000000000 ) ) ;
#95 = B_SPLINE_CURVE_WITH_KNOTS ( 'NONE', 3,
 ( #126, #198, #245, #25, #12, #153, #29, #107, #6, #180, #310, #202, #183, #78, #57, #32, #80, #62, #205, #223, #227, #207, #252, #158, #109, #131, #277, #63, #229, #84, #254, #209, #112, #13 ),
 .UNSPECIFIED., .F., .F.,
 ( 4, 2, 2, 2, 2, 2, 2, 2, 2, 2, 2, 2, 2, 2, 2, 2, 4 ),
 ( 0.0003686382274845981800, 0.0009950766417051589700, 0.001621515055925719600, 0.002247953470146280400, 0.002874391884366841500, 0.003500830298587403000, 0.004127268712807963600, 0.004753707127028525100, 0.005380145541249085700, 0.006006583955469647200, 0.006633022369690207800, 0.007259460783910768500, 0.007885899198131329100, 0.008512337612351889700, 0.009138776026572450300, 0.009765214440793011000, 0.01039165285501357200 ),
 .UNSPECIFIED. ) ;
#96 = FACE_OUTER_BOUND ( 'NONE', #19, .T. ) ;
#97 = ORIENTED_EDGE ( 'NONE', *, *, #319, .T. ) ;
#98 = ORIENTED_EDGE ( 'NONE', *, *, #319, .F. ) ;
#99 = AXIS2_PLACEMENT_3D ( 'NONE', #149, #148, #53 ) ;
#100 = SURFACE_STYLE_FILL_AREA ( #110 ) ;
#101 = ORIENTED_EDGE ( 'NONE', *, *, #244, .F. ) ;
#102 = EDGE_LOOP ( 'NONE', ( #270 ) ) ;
#103 = MECHANICAL_DESIGN_GEOMETRIC_PRESENTATION_REPRESENTATION (  '', ( #271 ), #249 ) ;
#104 = CARTESIAN_POINT ( 'NONE',  ( 0.0000000000000000000, 0.0000000000000000000, 0.0000000000000000000 ) ) ;
#105 = CARTESIAN_POINT ( 'NONE',  ( 26.55662432702592200, 0.0000000000000000000, 5.000000000000000000 ) ) ;
#106 = PRODUCT_DEFINITION_CONTEXT ( 'detailed design', #305, 'design' ) ;
#107 = CARTESIAN_POINT ( 'NONE',  ( 53.62014586581830900, -0.1283527891645126500, 2.126544576396646400 ) ) ;
#108 = DIRECTION ( 'NONE',  ( 0.0000000000000000000, 0.0000000000000000000, 1.000000000000000000 ) ) ;
#109 = CARTESIAN_POINT ( 'NONE',  ( 54.30205065973429200, -2.242949648811817500, -1.692199922188632600 ) ) ;
#110 = FILL_AREA_STYLE ('',( #39 ) ) ;
#111 = EDGE_CURVE ( 'NONE', #54, #211, #85, .T. ) ;
#112 = CARTESIAN_POINT ( 'NONE',  ( 54.49999999999997900, -0.2117394110554200700, -2.999999999999992500 ) ) ;
#113 = FACE_OUTER_BOUND ( 'NONE', #265, .T. ) ;
#114 = ORIENTED_EDGE ( 'NONE', *, *, #262, .T. ) ;
#115 = VERTEX_POINT ( 'NONE', #50 ) ;
#116 = DIRECTION ( 'NONE',  ( 1.000000000000000000, 0.0000000000000000000, 0.0000000000000000000 ) ) ;
#117 = DIRECTION ( 'NONE',  ( 0.7071067811865487900, -0.0000000000000000000, 0.7071067811865463500 ) ) ;
#118 = CARTESIAN_POINT ( 'NONE',  ( 53.49999999999999300, 1.705935258377097300, 1.043927628825802400 ) ) ;
#119 = EDGE_CURVE ( 'NONE', #15, #15, #88, .T. ) ;
#120 = DIRECTION ( 'NONE',  ( -1.000000000000000000, -0.0000000000000000000, -0.0000000000000000000 ) ) ;
#121 = DIRECTION ( 'NONE',  ( 0.7071067811865479100, 0.0000000000000000000, -0.7071067811865472400 ) ) ;
#122 = AXIS2_PLACEMENT_3D ( 'NONE', #135, #159, #65 ) ;
#123 = FACE_OUTER_BOUND ( 'NONE', #102, .T. ) ;
#124 = EDGE_LOOP ( 'NONE', ( #97, #313, #282 ) ) ;
#125 = CARTESIAN_POINT ( 'NONE',  ( 52.85600173310356100, 0.0000000000000000000, -2.012627416997956300 ) ) ;
#126 = CARTESIAN_POINT ( 'NONE',  ( 53.76452031879041700, 1.775033629930165700, 1.406167801804468800 ) ) ;
#127 = EDGE_LOOP ( 'NONE', ( #247 ) ) ;
#128 = PLANE ( 'NONE',  #309 ) ;
#129 = DIRECTION ( 'NONE',  ( -1.000000000000000000, -0.0000000000000000000, -0.0000000000000000000 ) ) ;
#130 = DIRECTION ( 'NONE',  ( -1.000000000000000000, -0.0000000000000000000, -0.0000000000000000000 ) ) ;
#131 = CARTESIAN_POINT ( 'NONE',  ( 54.35591940863676500, -2.010340264625386700, -2.039039845882606400 ) ) ;
#132 = ORIENTED_EDGE ( 'NONE', *, *, #111, .F. ) ;
#133 = PRESENTATION_LAYER_ASSIGNMENT (  '', '', ( #253 ) ) ;
#134 =( NAMED_UNIT ( * ) PLANE_ANGLE_UNIT ( ) SI_UNIT ( $, .RADIAN. ) );
#135 = CARTESIAN_POINT ( 'NONE',  ( 1.000000000000000900, 0.0000000000000000000, 0.0000000000000000000 ) ) ;
#136 = DIRECTION ( 'NONE',  ( -1.000000000000000000, -0.0000000000000000000, -0.0000000000000000000 ) ) ;
#137 = DIRECTION ( 'NONE',  ( -0.9659258262890700900, 0.0000000000000000000, -0.2588190451025141900 ) ) ;
#138 = CARTESIAN_POINT ( 'NONE',  ( 53.49999999999999300, 1.705935258377097300, 1.043927628825802400 ) ) ;
#139 = DIRECTION ( 'NONE',  ( 0.1956488079738463700, -0.6546536707079772000, -0.7301712917987014400 ) ) ;
#140 = TOROIDAL_SURFACE ( 'NONE', #266, 4.000000000000000000, 1.000000000000000400 ) ;
#141 = FACE_OUTER_BOUND ( 'NONE', #11, .T. ) ;
#142 = ORIENTED_EDGE ( 'NONE', *, *, #164, .F. ) ;
#143 = MANIFOLD_SOLID_BREP ( 'Schnitt-Linear austragen3', #55 ) ;
#144 = EDGE_CURVE ( 'NONE', #211, #174, #216, .T. ) ;
#145 = AXIS2_PLACEMENT_3D ( 'NONE', #212, #137, #68 ) ;
#146 = VECTOR ( 'NONE', #117, 999.9999999999998900 ) ;
#147 = CONICAL_SURFACE ( 'NONE', #283, 3.000000000000000000, 0.7853981633974479500 ) ;
#148 = DIRECTION ( 'NONE',  ( -1.000000000000000000, -0.0000000000000000000, -0.0000000000000000000 ) ) ;
#149 = CARTESIAN_POINT ( 'NONE',  ( 0.0000000000000000000, 0.0000000000000000000, 0.0000000000000000000 ) ) ;
#150 = CARTESIAN_POINT ( 'NONE',  ( 54.40618256177901900, 1.493140697769794100, 1.649173236994756900 ) ) ;
#151 = DIRECTION ( 'NONE',  ( 0.0000000000000000000, -0.5773502691896276200, -0.8164965809277247000 ) ) ;
#152 =( BOUNDED_CURVE ( )  B_SPLINE_CURVE ( 3, ( #181, #150, #77, #33 ),
 .UNSPECIFIED., .F., .F. ) 
 B_SPLINE_CURVE_WITH_KNOTS ( ( 4, 4 ),
 ( 1.503331010670452700, 1.721241819079972100 ),
 .UNSPECIFIED. ) 
 CURVE ( )  GEOMETRIC_REPRESENTATION_ITEM ( )  RATIONAL_B_SPLINE_CURVE ( ( 1.000000000000000000, 0.9960468197297736000, 0.9960468197297736000, 1.000000000000000000 ) ) 
 REPRESENTATION_ITEM ( '' )  );
#153 = CARTESIAN_POINT ( 'NONE',  ( 53.62960405006261100, 0.4988068646961382200, 2.080960165880911800 ) ) ;
#154 = APPLICATION_CONTEXT ( 'automotive_design' ) ;
#155 = AXIS2_PLACEMENT_3D ( 'NONE', #315, #136, #188 ) ;
#156 = SURFACE_SIDE_STYLE ('',( #100 ) ) ;
#157 = DIRECTION ( 'NONE',  ( 0.0000000000000000000, 0.0000000000000000000, 1.000000000000000000 ) ) ;
#158 = CARTESIAN_POINT ( 'NONE',  ( 54.27258965637223300, -2.337482995096393800, -1.505028825797015900 ) ) ;
#159 = DIRECTION ( 'NONE',  ( -1.000000000000000000, -0.0000000000000000000, -0.0000000000000000000 ) ) ;
#160 = VECTOR ( 'NONE', #49, 999.9999999999998900 ) ;
#161 = EDGE_LOOP ( 'NONE', ( #231 ) ) ;
#162 = ORIENTED_EDGE ( 'NONE', *, *, #119, .F. ) ;
#163 = CARTESIAN_POINT ( 'NONE',  ( 53.49999999999999300, 1.705935258377097300, 1.043927628825802400 ) ) ;
#164 = EDGE_CURVE ( 'NONE', #22, #54, #171, .T. ) ;
#165 = ADVANCED_FACE ( 'NONE', ( #21 ), #40, .F. ) ;
#166 = CARTESIAN_POINT ( 'NONE',  ( -79.66162912480135100, 0.0000000000000000000, 0.0000000000000000000 ) ) ;
#167 = CONICAL_SURFACE ( 'NONE', #93, 2.000000000000000000, 0.01960533085720469300 ) ;
#168 = ORIENTED_EDGE ( 'NONE', *, *, #275, .T. ) ;
#169 = ORIENTED_EDGE ( 'NONE', *, *, #119, .T. ) ;
#170 = EDGE_CURVE ( 'NONE', #89, #174, #70, .T. ) ;
#171 = B_SPLINE_CURVE_WITH_KNOTS ( 'NONE', 3,
 ( #91, #182, #190, #163 ),
 .UNSPECIFIED., .F., .F.,
 ( 4, 4 ),
 ( 0.001180292868724685800, 0.001633625888831042500 ),
 .UNSPECIFIED. ) ;
#172 = PRODUCT_DEFINITION ( 'UNKNOWN', '', #243, #106 ) ;
#173 = VECTOR ( 'NONE', #279, 1000.000000000000000 ) ;
#174 = VERTEX_POINT ( 'NONE', #194 ) ;
#175 = ORIENTED_EDGE ( 'NONE', *, *, #164, .T. ) ;
#176 = AXIS2_PLACEMENT_3D ( 'NONE', #104, #157, #307 ) ;
#177 =( NAMED_UNIT ( * ) PLANE_ANGLE_UNIT ( ) SI_UNIT ( $, .RADIAN. ) );
#178 = FILL_AREA_STYLE_COLOUR ( '', #237 ) ;
#179 = DIRECTION ( 'NONE',  ( 0.0000000000000000000, 0.0000000000000000000, -1.000000000000000000 ) ) ;
#180 = CARTESIAN_POINT ( 'NONE',  ( 53.64256488444154100, -0.7498786879216727800, 2.017887042517021000 ) ) ;
#181 = CARTESIAN_POINT ( 'NONE',  ( 54.72824132045563800, 1.334067135876117600, 1.746268007026343000 ) ) ;
#182 = CARTESIAN_POINT ( 'NONE',  ( 53.67420637024934400, 1.754436311418858400, 1.286724846076185500 ) ) ;
#183 = CARTESIAN_POINT ( 'NONE',  ( 53.71738365168493300, -1.498569193755143300, 1.647372482706344100 ) ) ;
#184 = CARTESIAN_POINT ( 'NONE',  ( 1.000000000000000900, 0.0000000000000000000, 0.0000000000000000000 ) ) ;
#185 = CARTESIAN_POINT ( 'NONE',  ( -79.66162912480135100, 0.0000000000000000000, -2.999999999999999600 ) ) ;
#186 = ORIENTED_EDGE ( 'NONE', *, *, #170, .T. ) ;
#187 = PRODUCT_RELATED_PRODUCT_CATEGORY ( 'part', '', ( #72 ) ) ;
#188 = DIRECTION ( 'NONE',  ( 0.0000000000000000000, 0.0000000000000000000, 1.000000000000000000 ) ) ;
#189 = CARTESIAN_POINT ( 'NONE',  ( 53.49999999999999300, 0.0000000000000000000, -1.999999999999998700 ) ) ;
#190 = CARTESIAN_POINT ( 'NONE',  ( 53.58576926256726800, 1.731703522563099500, 1.166138720083731900 ) ) ;
#191 = VECTOR ( 'NONE', #139, 1000.000000000000000 ) ;
#192 = CARTESIAN_POINT ( 'NONE',  ( 24.93431457505067100, 0.0000000000000000000, -29.93431457505075600 ) ) ;
#193 = ADVANCED_FACE ( 'NONE', ( #230 ), #147, .T. ) ;
#194 = CARTESIAN_POINT ( 'NONE',  ( 55.12693861120628500, 0.0000000000000000000, 0.2583094611047619900 ) ) ;
#195 = ADVANCED_FACE ( 'NONE', ( #67, #9 ), #259, .T. ) ;
#196 = EDGE_LOOP ( 'NONE', ( #281, #296, #38 ) ) ;
#197 = LINE ( 'NONE', #94, #82 ) ;
#198 = CARTESIAN_POINT ( 'NONE',  ( 53.73667626820859800, 1.625826884859279000, 1.549673841236136600 ) ) ;
#199 = LINE ( 'NONE', #64, #173 ) ;
#200 = ORIENTED_EDGE ( 'NONE', *, *, #218, .T. ) ;
#201 = AXIS2_PLACEMENT_3D ( 'NONE', #35, #233, #86 ) ;
#202 = CARTESIAN_POINT ( 'NONE',  ( 53.69452849686105400, -1.325168208214869000, 1.761729372309827700 ) ) ;
#203 = SURFACE_SIDE_STYLE ('',( #268 ) ) ;
#204 = DIRECTION ( 'NONE',  ( -0.5000000000000001100, -0.7071067811865464600, 0.5000000000000016700 ) ) ;
#205 = CARTESIAN_POINT ( 'NONE',  ( 54.00200459738516700, -2.507589359275458600, 0.1194691316711261200 ) ) ;
#206 = AXIS2_PLACEMENT_3D ( 'NONE', #308, #129, #108 ) ;
#207 = CARTESIAN_POINT ( 'NONE',  ( 54.17680708127838300, -2.525299814955696200, -0.9108321766794909000 ) ) ;
#208 = EDGE_CURVE ( 'NONE', #2, #2, #81, .T. ) ;
#209 = CARTESIAN_POINT ( 'NONE',  ( 54.49620898019652100, -0.4194351844057773700, -2.974068265952968900 ) ) ;
#210 = DIRECTION ( 'NONE',  ( 0.0000000000000000000, 0.0000000000000000000, 1.000000000000000000 ) ) ;
#211 = VERTEX_POINT ( 'NONE', #302 ) ;
#212 = CARTESIAN_POINT ( 'NONE',  ( 53.96126126393014700, -5.000000000000000900, 4.608676546371594200 ) ) ;
#213 = EDGE_CURVE ( 'NONE', #174, #115, #219, .T. ) ;
#214 = DIRECTION ( 'NONE',  ( 0.0000000000000000000, 0.0000000000000000000, 1.000000000000000000 ) ) ;
#215 = UNCERTAINTY_MEASURE_WITH_UNIT (LENGTH_MEASURE( 1.000000000000000100E-005 ), #303, 'distance_accuracy_value', 'NONE');
#216 = LINE ( 'NONE', #192, #146 ) ;
#217 =( GEOMETRIC_REPRESENTATION_CONTEXT ( 3 ) GLOBAL_UNCERTAINTY_ASSIGNED_CONTEXT ( ( #215 ) ) GLOBAL_UNIT_ASSIGNED_CONTEXT ( ( #303, #177, #274 ) ) REPRESENTATION_CONTEXT ( 'NONE', 'WORKASPACE' ) );
#218 = EDGE_CURVE ( 'NONE', #22, #3, #95, .T. ) ;
#219 = LINE ( 'NONE', #52, #160 ) ;
#220 = ORIENTED_EDGE ( 'NONE', *, *, #23, .T. ) ;
#221 = EDGE_LOOP ( 'NONE', ( #36, #175, #28, #220 ) ) ;
#222 = CARTESIAN_POINT ( 'NONE',  ( 27.99999999999999600, 0.0000000000000000000, 2.500000000000000000 ) ) ;
#223 = CARTESIAN_POINT ( 'NONE',  ( 54.07356339282814200, -2.564982357687430400, -0.2938440138825481100 ) ) ;
#224 = CARTESIAN_POINT ( 'NONE',  ( 55.99999999999997900, -1.848845746503983600, -2.999999999999991600 ) ) ;
#225 = CARTESIAN_POINT ( 'NONE',  ( 54.65131065873596600, -1.964814518048281000, 2.033377145224036100 ) ) ;
#226 = CARTESIAN_POINT ( 'NONE',  ( 19.63067258709323300, 7.500482429340849000, -24.63067258709330100 ) ) ;
#227 = CARTESIAN_POINT ( 'NONE',  ( 54.10852700682706000, -2.568212205102904400, -0.5001574492242520900 ) ) ;
#228 = CARTESIAN_POINT ( 'NONE',  ( 55.60514188089651100, -2.965377680796145800, -1.526369437724738100 ) ) ;
#229 = CARTESIAN_POINT ( 'NONE',  ( 54.44068257264079600, -1.391863650265868600, -2.598751609778255500 ) ) ;
#230 = FACE_OUTER_BOUND ( 'NONE', #221, .T. ) ;
#231 = ORIENTED_EDGE ( 'NONE', *, *, #241, .T. ) ;
#232 = FACE_BOUND ( 'NONE', #196, .T. ) ;
#233 = DIRECTION ( 'NONE',  ( 0.0000000000000000000, -1.000000000000000000, 0.0000000000000000000 ) ) ;
#234 = EDGE_LOOP ( 'NONE', ( #162 ) ) ;
#235 = DIRECTION ( 'NONE',  ( -1.000000000000000000, -0.0000000000000000000, -0.0000000000000000000 ) ) ;
#236 = CARTESIAN_POINT ( 'NONE',  ( 56.36308684794090600, -4.136232615461089800, -4.355058564075607200 ) ) ;
#237 = COLOUR_RGB ( '',1.000000000000000000, 1.000000000000000000, 0.5019607843137254800 ) ;
#238 = SHAPE_DEFINITION_REPRESENTATION ( #288, #44 ) ;
#239 = AXIS2_PLACEMENT_3D ( 'NONE', #56, #5, #179 ) ;
#240 = ORIENTED_EDGE ( 'NONE', *, *, #144, .F. ) ;
#241 = EDGE_CURVE ( 'NONE', #59, #59, #246, .T. ) ;
#242 = EDGE_LOOP ( 'NONE', ( #98, #168, #200, #75 ) ) ;
#243 = PRODUCT_DEFINITION_FORMATION_WITH_SPECIFIED_SOURCE ( 'ANY', '', #72, .NOT_KNOWN. ) ;
#244 = EDGE_CURVE ( 'NONE', #3, #115, #272, .T. ) ;
#245 = CARTESIAN_POINT ( 'NONE',  ( 53.71156708078915900, 1.457426969396048700, 1.676391479420891600 ) ) ;
#246 = CIRCLE ( 'NONE', #122, 5.000000000000000900 ) ;
#247 = ORIENTED_EDGE ( 'NONE', *, *, #262, .F. ) ;
#248 = ORIENTED_EDGE ( 'NONE', *, *, #241, .F. ) ;
#249 =( GEOMETRIC_REPRESENTATION_CONTEXT ( 3 ) GLOBAL_UNCERTAINTY_ASSIGNED_CONTEXT ( ( #24 ) ) GLOBAL_UNIT_ASSIGNED_CONTEXT ( ( #8, #134, #284 ) ) REPRESENTATION_CONTEXT ( 'NONE', 'WORKASPACE' ) );
#250 = CARTESIAN_POINT ( 'NONE',  ( 55.12822626981623800, -2.465096099422213500, 0.2535038537496489000 ) ) ;
#251 = APPLICATION_PROTOCOL_DEFINITION ( 'draft international standard', 'automotive_design', 1998, #154 ) ;
#252 = CARTESIAN_POINT ( 'NONE',  ( 54.21034035002571700, -2.478057522363077400, -1.116629233478957200 ) ) ;
#253 = STYLED_ITEM ( 'NONE', ( #51 ), #44 ) ;
#254 = CARTESIAN_POINT ( 'NONE',  ( 54.48125201001148100, -0.8254294700946754900, -2.872328220895471200 ) ) ;
#255 = SURFACE_STYLE_USAGE ( .BOTH. , #156 ) ;
#256 = EDGE_CURVE ( 'NONE', #211, #27, #199, .T. ) ;
#257 = CARTESIAN_POINT ( 'NONE',  ( 0.0000000000000000000, 0.0000000000000000000, 0.0000000000000000000 ) ) ;
#258 = MECHANICAL_DESIGN_GEOMETRIC_PRESENTATION_REPRESENTATION (  '', ( #253 ), #269 ) ;
#259 = CONICAL_SURFACE ( 'NONE', #292, 2.500000000000000000, 1.047197551196594300 ) ;
#260 = CARTESIAN_POINT ( 'NONE',  ( 54.49999999999999300, 0.0000000000000000000, 0.0000000000000000000 ) ) ;
#261 = ADVANCED_FACE ( 'NONE', ( #26 ), #312, .F. ) ;
#262 = EDGE_CURVE ( 'NONE', #280, #280, #294, .T. ) ;
#263 = CARTESIAN_POINT ( 'NONE',  ( 54.49999999999998600, -2.958228394578794300E-028, -2.999999999999991600 ) ) ;
#264 = COLOUR_RGB ( '',1.000000000000000000, 1.000000000000000000, 0.5019607843137254800 ) ;
#265 = EDGE_LOOP ( 'NONE', ( #295, #186, #240, #132, #142 ) ) ;
#266 = AXIS2_PLACEMENT_3D ( 'NONE', #184, #130, #58 ) ;
#267 =( BOUNDED_CURVE ( )  B_SPLINE_CURVE ( 3, ( #83, #4, #225, #250, #228, #224, #304 ),
 .UNSPECIFIED., .F., .F. ) 
 B_SPLINE_CURVE_WITH_KNOTS ( ( 4, 3, 4 ),
 ( 2.593578261043846900, 4.438381784111716600, 6.283185307179586200 ),
 .UNSPECIFIED. ) 
 CURVE ( )  GEOMETRIC_REPRESENTATION_ITEM ( )  RATIONAL_B_SPLINE_CURVE ( ( 1.000000000000000000, 0.7359383771932416200, 0.7359383771932416200, 1.000000000000000000, 0.7359383771932416200, 0.7359383771932416200, 1.000000000000000000 ) ) 
 REPRESENTATION_ITEM ( '' )  );
#268 = SURFACE_STYLE_FILL_AREA ( #30 ) ;
#269 =( GEOMETRIC_REPRESENTATION_CONTEXT ( 3 ) GLOBAL_UNCERTAINTY_ASSIGNED_CONTEXT ( ( #306 ) ) GLOBAL_UNIT_ASSIGNED_CONTEXT ( ( #61, #79, #276 ) ) REPRESENTATION_CONTEXT ( 'NONE', 'WORKASPACE' ) );
#270 = ORIENTED_EDGE ( 'NONE', *, *, #208, .T. ) ;
#271 = STYLED_ITEM ( 'NONE', ( #298 ), #143 ) ;
#272 = LINE ( 'NONE', #185, #76 ) ;
#273 = ORIENTED_EDGE ( 'NONE', *, *, #208, .F. ) ;
#274 =( NAMED_UNIT ( * ) SI_UNIT ( $, .STERADIAN. ) SOLID_ANGLE_UNIT ( ) );
#275 = EDGE_CURVE ( 'NONE', #89, #22, #152, .T. ) ;
#276 =( NAMED_UNIT ( * ) SI_UNIT ( $, .STERADIAN. ) SOLID_ANGLE_UNIT ( ) );
#277 = CARTESIAN_POINT ( 'NONE',  ( 54.37991672056828200, -1.874781319025908800, -2.195986618291919000 ) ) ;
#278 = CARTESIAN_POINT ( 'NONE',  ( 1.000000000000000900, 0.0000000000000000000, 5.000000000000000900 ) ) ;
#279 = DIRECTION ( 'NONE',  ( 0.9998078216567245500, 0.0000000000000000000, 0.01960407493444558900 ) ) ;
#280 = VERTEX_POINT ( 'NONE', #105 ) ;
#281 = ORIENTED_EDGE ( 'NONE', *, *, #111, .T. ) ;
#282 = ORIENTED_EDGE ( 'NONE', *, *, #170, .F. ) ;
#283 = AXIS2_PLACEMENT_3D ( 'NONE', #260, #18, #16 ) ;
#284 =( NAMED_UNIT ( * ) SI_UNIT ( $, .STERADIAN. ) SOLID_ANGLE_UNIT ( ) );
#285 = DIRECTION ( 'NONE',  ( 0.0000000000000000000, 0.0000000000000000000, 1.000000000000000000 ) ) ;
#286 = ADVANCED_FACE ( 'NONE', ( #96, #1 ), #140, .T. ) ;
#287 = CARTESIAN_POINT ( 'NONE',  ( 27.99999999999999600, 0.0000000000000000000, 0.0000000000000000000 ) ) ;
#288 = PRODUCT_DEFINITION_SHAPE ( 'NONE', 'NONE',  #172 ) ;
#289 = CARTESIAN_POINT ( 'NONE',  ( 53.76452031879041700, 1.775033629930165700, 1.406167801804468800 ) ) ;
#290 = ADVANCED_FACE ( 'NONE', ( #113 ), #128, .F. ) ;
#291 = CIRCLE ( 'NONE', #297, 2.000000000000000000 ) ;
#292 = AXIS2_PLACEMENT_3D ( 'NONE', #287, #42, #214 ) ;
#293 = ADVANCED_FACE ( 'NONE', ( #318 ), #74, .T. ) ;
#294 = CIRCLE ( 'NONE', #206, 5.000000000000000000 ) ;
#295 = ORIENTED_EDGE ( 'NONE', *, *, #275, .F. ) ;
#296 = ORIENTED_EDGE ( 'NONE', *, *, #256, .T. ) ;
#297 = AXIS2_PLACEMENT_3D ( 'NONE', #14, #120, #210 ) ;
#298 = PRESENTATION_STYLE_ASSIGNMENT (( #255 ) ) ;
#299 = EDGE_LOOP ( 'NONE', ( #248 ) ) ;
#300 = FACE_OUTER_BOUND ( 'NONE', #234, .T. ) ;
#301 = ORIENTED_EDGE ( 'NONE', *, *, #23, .F. ) ;
#302 = CARTESIAN_POINT ( 'NONE',  ( 52.85600173310356100, 0.0000000000000000000, -2.012627416997956300 ) ) ;
#303 =( LENGTH_UNIT ( ) NAMED_UNIT ( * ) SI_UNIT ( .MILLI., .METRE. ) );
#304 = CARTESIAN_POINT ( 'NONE',  ( 56.00000000000000000, 0.0000000000000000000, -3.000000000000071500 ) ) ;
#305 = APPLICATION_CONTEXT ( 'automotive_design' ) ;
#306 = UNCERTAINTY_MEASURE_WITH_UNIT (LENGTH_MEASURE( 1.000000000000000100E-005 ), #61, 'distance_accuracy_value', 'NONE');
#307 = DIRECTION ( 'NONE',  ( 1.000000000000000000, 0.0000000000000000000, 0.0000000000000000000 ) ) ;
#308 = CARTESIAN_POINT ( 'NONE',  ( 26.55662432702592200, 0.0000000000000000000, 0.0000000000000000000 ) ) ;
#309 = AXIS2_PLACEMENT_3D ( 'NONE', #226, #204, #151 ) ;
#310 = CARTESIAN_POINT ( 'NONE',  ( 53.65684453023337900, -0.9485737073034702400, 1.948330589812102200 ) ) ;
#311 = ORIENTED_EDGE ( 'NONE', *, *, #213, .T. ) ;
#312 = PLANE ( 'NONE',  #201 ) ;
#313 = ORIENTED_EDGE ( 'NONE', *, *, #213, .F. ) ;
#314 = AXIS2_PLACEMENT_3D ( 'NONE', #166, #235, #90 ) ;
#315 = CARTESIAN_POINT ( 'NONE',  ( 27.99999999999999600, 0.0000000000000000000, 0.0000000000000000000 ) ) ;
#316 = DIRECTION ( 'NONE',  ( 0.0000000000000000000, 0.0000000000000000000, -1.000000000000000000 ) ) ;
#317 = CARTESIAN_POINT ( 'NONE',  ( 50.56817052719804200, 2.703836011363130800, -0.4766570652009641300 ) ) ;
#318 = FACE_OUTER_BOUND ( 'NONE', #242, .T. ) ;
#319 = EDGE_CURVE ( 'NONE', #89, #115, #267, .T. ) ;
#320 = CARTESIAN_POINT ( 'NONE',  ( 53.49999999999999300, 0.0000000000000000000, 0.0000000000000000000 ) ) ;
#321 = EDGE_LOOP ( 'NONE', ( #169 ) ) ;
ENDSEC;
END-ISO-10303-21;
