ISO-10303-21;
HEADER;
FILE_DESCRIPTION (( 'STEP AP214' ),
    '1' );
FILE_NAME ('U10.B05.002.025.STEP',
    '2020-10-01T11:35:31',
    ( '' ),
    ( '' ),
    'SwSTEP 2.0',
    'SolidWorks 2017',
    '' );
FILE_SCHEMA (( 'AUTOMOTIVE_DESIGN' ));
ENDSEC;

DATA;
#1 = CARTESIAN_POINT ( 'NONE',  ( 49.99999999999999300, 0.0000000000000000000, -0.4802948307845697500 ) ) ;
#2 = VECTOR ( 'NONE', #154, 999.9999999999998900 ) ;
#3 = ORIENTED_EDGE ( 'NONE', *, *, #149, .F. ) ;
#4 = DIRECTION ( 'NONE',  ( -1.000000000000000000, -0.0000000000000000000, -0.0000000000000000000 ) ) ;
#5 = CIRCLE ( 'NONE', #256, 1.500000000000000000 ) ;
#6 = EDGE_CURVE ( 'NONE', #98, #226, #40, .T. ) ;
#7 = DIRECTION ( 'NONE',  ( 1.000000000000000000, 0.0000000000000000000, 0.0000000000000000000 ) ) ;
#8 =( BOUNDED_CURVE ( )  B_SPLINE_CURVE ( 3, ( #173, #294, #298, #147 ),
 .UNSPECIFIED., .F., .T. ) 
 B_SPLINE_CURVE_WITH_KNOTS ( ( 4, 4 ),
 ( 5.017568847758121300, 7.269592183135364900 ),
 .UNSPECIFIED. ) 
 CURVE ( )  GEOMETRIC_REPRESENTATION_ITEM ( )  RATIONAL_B_SPLINE_CURVE ( ( 1.000000000000000000, 0.6201756675563379100, 0.6201756675563379100, 1.000000000000000000 ) ) 
 REPRESENTATION_ITEM ( '' )  );
#9 = CARTESIAN_POINT ( 'NONE',  ( 49.99999999999998600, 0.0000000000000000000, 0.0000000000000000000 ) ) ;
#10 = DIRECTION ( 'NONE',  ( 0.0000000000000000000, 0.0000000000000000000, 1.000000000000000000 ) ) ;
#11 = ORIENTED_EDGE ( 'NONE', *, *, #100, .T. ) ;
#12 = ADVANCED_FACE ( 'NONE', ( #279 ), #132, .T. ) ;
#13 = CARTESIAN_POINT ( 'NONE',  ( 50.70767643534126300, -1.939350594117679400, -1.066323571691516500 ) ) ;
#14 = EDGE_CURVE ( 'NONE', #98, #88, #257, .T. ) ;
#15 = CARTESIAN_POINT ( 'NONE',  ( -79.66162912480135100, 0.0000000000000000000, 0.0000000000000000000 ) ) ;
#16 = SHAPE_DEFINITION_REPRESENTATION ( #139, #115 ) ;
#17 = ORIENTED_EDGE ( 'NONE', *, *, #232, .F. ) ;
#18 = CARTESIAN_POINT ( 'NONE',  ( 50.07862550965381100, -0.7234258586168023100, 1.412322426922453900 ) ) ;
#19 = ADVANCED_FACE ( 'NONE', ( #145, #80 ), #129, .T. ) ;
#20 = CARTESIAN_POINT ( 'NONE',  ( 25.26794919243109700, 0.0000000000000000000, 5.000000000000000000 ) ) ;
#21 = DIRECTION ( 'NONE',  ( 1.000000000000000000, 0.0000000000000000000, 0.0000000000000000000 ) ) ;
#22 = SURFACE_STYLE_FILL_AREA ( #251 ) ;
#23 = ORIENTED_EDGE ( 'NONE', *, *, #320, .T. ) ;
#24 =( LENGTH_UNIT ( ) NAMED_UNIT ( * ) SI_UNIT ( .MILLI., .METRE. ) );
#25 = EDGE_CURVE ( 'NONE', #254, #83, #5, .T. ) ;
#26 = CARTESIAN_POINT ( 'NONE',  ( 50.94070392617914000, -1.079697103674653700, -2.194793005829380300 ) ) ;
#27 = CARTESIAN_POINT ( 'NONE',  ( 0.0000000000000000000, 0.0000000000000000000, 0.0000000000000000000 ) ) ;
#28 = VECTOR ( 'NONE', #168, 1000.000000000000000 ) ;
#29 = EDGE_LOOP ( 'NONE', ( #3 ) ) ;
#30 = EDGE_CURVE ( 'NONE', #112, #112, #249, .T. ) ;
#31 = CARTESIAN_POINT ( 'NONE',  ( 49.35459868677045100, 0.0000000000000000000, -1.514030463331067500 ) ) ;
#32 = CYLINDRICAL_SURFACE ( 'NONE', #169, 5.000000000000000900 ) ;
#33 = PRODUCT_DEFINITION ( 'UNKNOWN', '', #183, #202 ) ;
#34 = DIRECTION ( 'NONE',  ( 0.1956488079738468200, -0.6546536707079764200, -0.7301712917987019900 ) ) ;
#35 = EDGE_CURVE ( 'NONE', #98, #77, #81, .T. ) ;
#36 = EDGE_LOOP ( 'NONE', ( #236 ) ) ;
#37 = ADVANCED_FACE ( 'NONE', ( #219 ), #131, .F. ) ;
#38 = DIRECTION ( 'NONE',  ( -1.000000000000000000, -0.0000000000000000000, -0.0000000000000000000 ) ) ;
#39 = DIRECTION ( 'NONE',  ( 0.0000000000000000000, -1.000000000000000000, 0.0000000000000000000 ) ) ;
#40 = LINE ( 'NONE', #162, #228 ) ;
#41 = CARTESIAN_POINT ( 'NONE',  ( 51.99999999999996400, -1.405146152595946300, -2.499999999999937400 ) ) ;
#42 = CARTESIAN_POINT ( 'NONE',  ( 25.26794919243109700, 0.0000000000000000000, 0.0000000000000000000 ) ) ;
#43 = CARTESIAN_POINT ( 'NONE',  ( 50.07722116512153600, 0.7105637068539116800, 1.417174714576188200 ) ) ;
#44 = CARTESIAN_POINT ( 'NONE',  ( 50.14400964715416400, 1.141319568043103200, 1.193621239344967400 ) ) ;
#45 = FACE_OUTER_BOUND ( 'NONE', #220, .T. ) ;
#46 = VERTEX_POINT ( 'NONE', #31 ) ;
#47 = AXIS2_PLACEMENT_3D ( 'NONE', #180, #78, #195 ) ;
#48 = DIRECTION ( 'NONE',  ( -1.000000000000000000, -0.0000000000000000000, -0.0000000000000000000 ) ) ;
#49 = CARTESIAN_POINT ( 'NONE',  ( 50.04176770351635600, 0.2380051729112802300, 1.531951707035818000 ) ) ;
#50 = EDGE_CURVE ( 'NONE', #68, #68, #206, .T. ) ;
#51 = DIRECTION ( 'NONE',  ( -1.000000000000000000, -0.0000000000000000000, -0.0000000000000000000 ) ) ;
#52 = CARTESIAN_POINT ( 'NONE',  ( 50.92227690312010000, -1.215539568489686400, -2.101258162924072100 ) ) ;
#53 = AXIS2_PLACEMENT_3D ( 'NONE', #305, #38, #234 ) ;
#54 = EDGE_LOOP ( 'NONE', ( #17, #102, #178, #108 ) ) ;
#55 = APPLICATION_PROTOCOL_DEFINITION ( 'draft international standard', 'automotive_design', 1998, #318 ) ;
#56 = SURFACE_SIDE_STYLE ('',( #22 ) ) ;
#57 = EDGE_CURVE ( 'NONE', #46, #254, #160, .T. ) ;
#58 = EDGE_LOOP ( 'NONE', ( #187, #285, #194, #167, #229 ) ) ;
#59 = CARTESIAN_POINT ( 'NONE',  ( 50.43984533664782800, 1.145077323524905000, 1.190600067441097700 ) ) ;
#60 = LINE ( 'NONE', #135, #258 ) ;
#61 = DIRECTION ( 'NONE',  ( 0.0000000000000000000, 0.0000000000000000000, -1.000000000000000000 ) ) ;
#62 = AXIS2_PLACEMENT_3D ( 'NONE', #27, #123, #198 ) ;
#63 = COLOUR_RGB ( '',1.000000000000000000, 1.000000000000000000, 0.5019607843137254800 ) ;
#64 = VERTEX_POINT ( 'NONE', #292 ) ;
#65 = DIRECTION ( 'NONE',  ( 0.7071067811865487900, -0.0000000000000000000, 0.7071067811865463500 ) ) ;
#66 = B_SPLINE_CURVE_WITH_KNOTS ( 'NONE', 3,
 ( #73, #44, #242, #43, #245, #49, #71, #69, #265, #18, #293, #91, #116, #138, #191, #70, #217, #93, #240, #312, #141, #170, #13, #267, #297, #113, #314, #52, #26, #299, #177, #181, #218, #222 ),
 .UNSPECIFIED., .F., .F.,
 ( 4, 2, 2, 2, 2, 2, 2, 2, 2, 2, 2, 2, 2, 2, 2, 2, 4 ),
 ( 0.0003315138209285102000, 0.0008172637769485768000, 0.001303013732968643500, 0.001788763688988710300, 0.002274513645008777000, 0.002760263601028844100, 0.003246013557048910800, 0.003731763513068976500, 0.004217513469089041900, 0.004703263425109108600, 0.005189013381129175200, 0.005674763337149241000, 0.006160513293169307700, 0.006646263249189374300, 0.007132013205209440100, 0.007617763161229505900, 0.008103513117249570900 ),
 .UNSPECIFIED. ) ;
#67 = DIRECTION ( 'NONE',  ( -1.000000000000000000, -0.0000000000000000000, -0.0000000000000000000 ) ) ;
#68 = VERTEX_POINT ( 'NONE', #20 ) ;
#69 = CARTESIAN_POINT ( 'NONE',  ( 50.04219739893804300, -0.2495552442288486200, 1.530474352213492700 ) ) ;
#70 = CARTESIAN_POINT ( 'NONE',  ( 50.34141383724058000, -1.785013707479894000, 0.4778043126780817700 ) ) ;
#71 = CARTESIAN_POINT ( 'NONE',  ( 50.03781048773990400, 0.07424773959101947700, 1.544540421867468100 ) ) ;
#72 = CONICAL_SURFACE ( 'NONE', #261, 2.000000000000000000, 1.047197551196592300 ) ;
#73 = CARTESIAN_POINT ( 'NONE',  ( 50.17268186721595000, 1.265519065179909100, 1.093766942533569400 ) ) ;
#74 = CARTESIAN_POINT ( 'NONE',  ( 0.0000000000000000000, 0.0000000000000000000, 4.000000000000000000 ) ) ;
#75 = PLANE ( 'NONE',  #62 ) ;
#76 =( NAMED_UNIT ( * ) PLANE_ANGLE_UNIT ( ) SI_UNIT ( $, .RADIAN. ) );
#77 = VERTEX_POINT ( 'NONE', #109 ) ;
#78 = DIRECTION ( 'NONE',  ( -0.9659258262890699800, 0.0000000000000000000, -0.2588190451025145200 ) ) ;
#79 = MECHANICAL_DESIGN_GEOMETRIC_PRESENTATION_REPRESENTATION (  '', ( #227 ), #271 ) ;
#80 = FACE_OUTER_BOUND ( 'NONE', #36, .T. ) ;
#81 =( BOUNDED_CURVE ( )  B_SPLINE_CURVE ( 3, ( #262, #110, #291, #210, #233, #41, #287 ),
 .UNSPECIFIED., .F., .T. ) 
 B_SPLINE_CURVE_WITH_KNOTS ( ( 4, 3, 4 ),
 ( 2.693475176977928600, 4.488330242078757400, 6.283185307179586200 ),
 .UNSPECIFIED. ) 
 CURVE ( )  GEOMETRIC_REPRESENTATION_ITEM ( )  RATIONAL_B_SPLINE_CURVE ( ( 1.000000000000000000, 0.7490819948314178000, 0.7490819948314178000, 1.000000000000000000, 0.7490819948314178000, 0.7490819948314178000, 1.000000000000000000 ) ) 
 REPRESENTATION_ITEM ( '' )  );
#82 = CARTESIAN_POINT ( 'NONE',  ( 1.000000000000000900, 0.0000000000000000000, 0.0000000000000000000 ) ) ;
#83 = VERTEX_POINT ( 'NONE', #310 ) ;
#84 = UNCERTAINTY_MEASURE_WITH_UNIT (LENGTH_MEASURE( 1.000000000000000100E-005 ), #24, 'distance_accuracy_value', 'NONE');
#85 = FACE_OUTER_BOUND ( 'NONE', #290, .T. ) ;
#86 = STYLED_ITEM ( 'NONE', ( #150 ), #115 ) ;
#87 = PLANE ( 'NONE',  #94 ) ;
#88 = VERTEX_POINT ( 'NONE', #288 ) ;
#89 = CARTESIAN_POINT ( 'NONE',  ( 118.9999999999999600, 0.0000000000000000000, 0.0000000000000000000 ) ) ;
#90 =( GEOMETRIC_REPRESENTATION_CONTEXT ( 3 ) GLOBAL_UNCERTAINTY_ASSIGNED_CONTEXT ( ( #84 ) ) GLOBAL_UNIT_ASSIGNED_CONTEXT ( ( #24, #248, #224 ) ) REPRESENTATION_CONTEXT ( 'NONE', 'WORKASPACE' ) );
#91 = CARTESIAN_POINT ( 'NONE',  ( 50.14619025461039600, -1.152891102975391700, 1.185896611642362800 ) ) ;
#92 = ORIENTED_EDGE ( 'NONE', *, *, #127, .F. ) ;
#93 = CARTESIAN_POINT ( 'NONE',  ( 50.45374013884119100, -1.959471217710723600, 0.03417261512826742100 ) ) ;
#94 = AXIS2_PLACEMENT_3D ( 'NONE', #309, #188, #164 ) ;
#95 = CARTESIAN_POINT ( 'NONE',  ( 48.49999999999998600, 0.0000000000000000000, 0.0000000000000000000 ) ) ;
#96 = APPLICATION_PROTOCOL_DEFINITION ( 'draft international standard', 'automotive_design', 1998, #277 ) ;
#97 = FACE_OUTER_BOUND ( 'NONE', #307, .T. ) ;
#98 = VERTEX_POINT ( 'NONE', #163 ) ;
#99 = SURFACE_SIDE_STYLE ('',( #128 ) ) ;
#100 = EDGE_CURVE ( 'NONE', #64, #77, #60, .T. ) ;
#101 = EDGE_LOOP ( 'NONE', ( #118, #159, #184, #11 ) ) ;
#102 = ORIENTED_EDGE ( 'NONE', *, *, #199, .T. ) ;
#103 = ORIENTED_EDGE ( 'NONE', *, *, #50, .F. ) ;
#104 = AXIS2_PLACEMENT_3D ( 'NONE', #122, #274, #21 ) ;
#105 = FACE_OUTER_BOUND ( 'NONE', #158, .T. ) ;
#106 = AXIS2_PLACEMENT_3D ( 'NONE', #146, #51, #211 ) ;
#107 = DIRECTION ( 'NONE',  ( 0.0000000000000000000, 0.0000000000000000000, 1.000000000000000000 ) ) ;
#108 = ORIENTED_EDGE ( 'NONE', *, *, #137, .T. ) ;
#109 = CARTESIAN_POINT ( 'NONE',  ( 52.00000000000000000, 0.0000000000000000000, -2.500000000000022200 ) ) ;
#110 = CARTESIAN_POINT ( 'NONE',  ( 50.80794747253102600, -0.3913311634853902100, 1.948800597805183900 ) ) ;
#111 = CARTESIAN_POINT ( 'NONE',  ( 22.93431457505067400, 0.0000000000000000000, -27.93431457505075600 ) ) ;
#112 = VERTEX_POINT ( 'NONE', #302 ) ;
#113 = CARTESIAN_POINT ( 'NONE',  ( 50.85550509649221600, -1.563668928973900100, -1.768839118227273100 ) ) ;
#114 = EDGE_CURVE ( 'NONE', #46, #226, #278, .T. ) ;
#115 = ADVANCED_BREP_SHAPE_REPRESENTATION ( 'U10.B05.002.025', ( #270, #104 ), #90 ) ;
#116 = CARTESIAN_POINT ( 'NONE',  ( 50.17410660717332100, -1.280470853282454500, 1.089814886634671300 ) ) ;
#117 = CARTESIAN_POINT ( 'NONE',  ( 0.0000000000000000000, 0.0000000000000000000, 0.0000000000000000000 ) ) ;
#118 = ORIENTED_EDGE ( 'NONE', *, *, #35, .F. ) ;
#119 = ADVANCED_FACE ( 'NONE', ( #263 ), #87, .F. ) ;
#120 = PLANE ( 'NONE',  #47 ) ;
#121 = PRODUCT_RELATED_PRODUCT_CATEGORY ( 'part', '', ( #133 ) ) ;
#122 = CARTESIAN_POINT ( 'NONE',  ( 0.0000000000000000000, 0.0000000000000000000, 0.0000000000000000000 ) ) ;
#123 = DIRECTION ( 'NONE',  ( 1.000000000000000000, 0.0000000000000000000, 0.0000000000000000000 ) ) ;
#124 = FILL_AREA_STYLE_COLOUR ( '', #63 ) ;
#125 = MECHANICAL_DESIGN_GEOMETRIC_PRESENTATION_REPRESENTATION (  '', ( #86 ), #142 ) ;
#126 = CLOSED_SHELL ( 'NONE', ( #243, #119, #239, #19, #171, #140, #130, #37, #12, #286 ) ) ;
#127 = EDGE_CURVE ( 'NONE', #172, #172, #282, .T. ) ;
#128 = SURFACE_STYLE_FILL_AREA ( #148 ) ;
#129 = TOROIDAL_SURFACE ( 'NONE', #252, 4.000000000000000000, 1.000000000000000400 ) ;
#130 = ADVANCED_FACE ( 'NONE', ( #45, #266 ), #284, .T. ) ;
#131 = PLANE ( 'NONE',  #276 ) ;
#132 = CYLINDRICAL_SURFACE ( 'NONE', #166, 2.019705169215367100 ) ;
#133 = PRODUCT ( 'U10.B05.002.025', 'U10.B05.002.025', '', ( #196 ) ) ;
#134 = CARTESIAN_POINT ( 'NONE',  ( 22.93431457505067400, 0.0000000000000000000, -27.93431457505075600 ) ) ;
#135 = CARTESIAN_POINT ( 'NONE',  ( -79.66162912480135100, 0.0000000000000000000, -2.500000000000000000 ) ) ;
#136 = LINE ( 'NONE', #250, #2 ) ;
#137 = EDGE_CURVE ( 'NONE', #254, #64, #214, .T. ) ;
#138 = CARTESIAN_POINT ( 'NONE',  ( 50.23646041154369600, -1.511885082674087500, 0.8684281309936431300 ) ) ;
#139 = PRODUCT_DEFINITION_SHAPE ( 'NONE', 'NONE',  #33 ) ;
#140 = ADVANCED_FACE ( 'NONE', ( #85, #204 ), #72, .T. ) ;
#141 = CARTESIAN_POINT ( 'NONE',  ( 50.60289667344177600, -2.022586179338694600, -0.5958938963845512600 ) ) ;
#142 =( GEOMETRIC_REPRESENTATION_CONTEXT ( 3 ) GLOBAL_UNCERTAINTY_ASSIGNED_CONTEXT ( ( #280 ) ) GLOBAL_UNIT_ASSIGNED_CONTEXT ( ( #319, #304, #316 ) ) REPRESENTATION_CONTEXT ( 'NONE', 'WORKASPACE' ) );
#143 = DIRECTION ( 'NONE',  ( 0.0000000000000000000, 0.0000000000000000000, 1.000000000000000000 ) ) ;
#144 = VECTOR ( 'NONE', #65, 1000.000000000000000 ) ;
#145 = FACE_OUTER_BOUND ( 'NONE', #29, .T. ) ;
#146 = CARTESIAN_POINT ( 'NONE',  ( 1.000000000000000900, 0.0000000000000000000, 0.0000000000000000000 ) ) ;
#147 = CARTESIAN_POINT ( 'NONE',  ( 49.35459868677045100, 0.0000000000000000000, -1.514030463331067500 ) ) ;
#148 = FILL_AREA_STYLE ('',( #124 ) ) ;
#149 = EDGE_CURVE ( 'NONE', #311, #311, #165, .T. ) ;
#150 = PRESENTATION_STYLE_ASSIGNMENT (( #179 ) ) ;
#151 =( NAMED_UNIT ( * ) SI_UNIT ( $, .STERADIAN. ) SOLID_ANGLE_UNIT ( ) );
#152 = ORIENTED_EDGE ( 'NONE', *, *, #114, .T. ) ;
#153 = CARTESIAN_POINT ( 'NONE',  ( 1.000000000000000900, 0.0000000000000000000, 5.000000000000000900 ) ) ;
#154 = DIRECTION ( 'NONE',  ( 0.2588190451025145200, 0.0000000000000000000, -0.9659258262890699800 ) ) ;
#155 = EDGE_CURVE ( 'NONE', #83, #46, #8, .T. ) ;
#156 = VECTOR ( 'NONE', #268, 999.9999999999998900 ) ;
#157 = ORIENTED_EDGE ( 'NONE', *, *, #6, .F. ) ;
#158 = EDGE_LOOP ( 'NONE', ( #273 ) ) ;
#159 = ORIENTED_EDGE ( 'NONE', *, *, #14, .T. ) ;
#160 = LINE ( 'NONE', #89, #28 ) ;
#161 = ORIENTED_EDGE ( 'NONE', *, *, #149, .T. ) ;
#162 = CARTESIAN_POINT ( 'NONE',  ( 52.27064194550806800, -3.473352552537672700, -3.510049491295432800 ) ) ;
#163 = CARTESIAN_POINT ( 'NONE',  ( 50.97107686584296700, 0.8750769550951371700, 1.339993413757128800 ) ) ;
#164 = DIRECTION ( 'NONE',  ( 0.0000000000000000000, -0.5773502691896266200, -0.8164965809277252600 ) ) ;
#165 = CIRCLE ( 'NONE', #300, 4.000000000000000000 ) ;
#166 = AXIS2_PLACEMENT_3D ( 'NONE', #1, #205, #61 ) ;
#167 = ORIENTED_EDGE ( 'NONE', *, *, #155, .F. ) ;
#168 = DIRECTION ( 'NONE',  ( 0.9997637888239162600, 0.0000000000000000000, 0.02173399540921558100 ) ) ;
#169 = AXIS2_PLACEMENT_3D ( 'NONE', #15, #189, #296 ) ;
#170 = CARTESIAN_POINT ( 'NONE',  ( 50.67329715174878400, -1.979944498838028100, -0.9092910759202523800 ) ) ;
#171 = ADVANCED_FACE ( 'NONE', ( #200, #105 ), #32, .T. ) ;
#172 = VERTEX_POINT ( 'NONE', #153 ) ;
#173 = CARTESIAN_POINT ( 'NONE',  ( 49.99999999999998600, 1.225664915588002800, 0.8647227964478904100 ) ) ;
#174 = ORIENTED_EDGE ( 'NONE', *, *, #30, .T. ) ;
#175 = CARTESIAN_POINT ( 'NONE',  ( 50.05641545464034400, 1.240301820829835500, 0.9418379609924234500 ) ) ;
#176 = CARTESIAN_POINT ( 'NONE',  ( 49.99999999999998600, 1.225664915588002800, 0.8647227964478904100 ) ) ;
#177 = CARTESIAN_POINT ( 'NONE',  ( 50.98122351364079900, -0.6408775882291901600, -2.402573886088488700 ) ) ;
#178 = ORIENTED_EDGE ( 'NONE', *, *, #25, .F. ) ;
#179 = SURFACE_STYLE_USAGE ( .BOTH. , #99 ) ;
#180 = CARTESIAN_POINT ( 'NONE',  ( 50.35421045636125800, -5.000000000000000900, 3.642170195425509200 ) ) ;
#181 = CARTESIAN_POINT ( 'NONE',  ( 50.99627574729950700, -0.3236961160664487700, -2.480570230322865800 ) ) ;
#182 =( LENGTH_UNIT ( ) NAMED_UNIT ( * ) SI_UNIT ( .MILLI., .METRE. ) );
#183 = PRODUCT_DEFINITION_FORMATION_WITH_SPECIFIED_SOURCE ( 'ANY', '', #133, .NOT_KNOWN. ) ;
#184 = ORIENTED_EDGE ( 'NONE', *, *, #232, .T. ) ;
#185 = AXIS2_PLACEMENT_3D ( 'NONE', #42, #235, #107 ) ;
#186 = DIRECTION ( 'NONE',  ( 0.0000000000000000000, 0.0000000000000000000, -1.000000000000000000 ) ) ;
#187 = ORIENTED_EDGE ( 'NONE', *, *, #14, .F. ) ;
#188 = DIRECTION ( 'NONE',  ( -0.4999999999999995000, -0.7071067811865472400, 0.5000000000000011100 ) ) ;
#189 = DIRECTION ( 'NONE',  ( -1.000000000000000000, -0.0000000000000000000, -0.0000000000000000000 ) ) ;
#190 = FACE_OUTER_BOUND ( 'NONE', #54, .T. ) ;
#191 = CARTESIAN_POINT ( 'NONE',  ( 50.27061957431183000, -1.614098420932130100, 0.7440066811557635200 ) ) ;
#192 = CARTESIAN_POINT ( 'NONE',  ( 50.11408566176567800, 1.253457142152314000, 1.018112601949378200 ) ) ;
#193 = CARTESIAN_POINT ( 'NONE',  ( 26.99999999999999600, 0.0000000000000000000, 0.0000000000000000000 ) ) ;
#194 = ORIENTED_EDGE ( 'NONE', *, *, #114, .F. ) ;
#195 = DIRECTION ( 'NONE',  ( -0.2588190451025145200, 0.0000000000000000000, 0.9659258262890699800 ) ) ;
#196 = PRODUCT_CONTEXT ( 'NONE', #277, 'mechanical' ) ;
#197 = CARTESIAN_POINT ( 'NONE',  ( 49.99999999999998600, 0.0000000000000000000, -1.499999999999998700 ) ) ;
#198 = DIRECTION ( 'NONE',  ( 0.0000000000000000000, 0.0000000000000000000, -1.000000000000000000 ) ) ;
#199 = EDGE_CURVE ( 'NONE', #88, #83, #212, .T. ) ;
#200 = FACE_OUTER_BOUND ( 'NONE', #237, .T. ) ;
#201 = EDGE_LOOP ( 'NONE', ( #152, #23, #225, #231, #230 ) ) ;
#202 = PRODUCT_DEFINITION_CONTEXT ( 'detailed design', #318, 'design' ) ;
#203 = CARTESIAN_POINT ( 'NONE',  ( 50.70714432938065400, 1.014359091414714500, 1.273035563474264500 ) ) ;
#204 = FACE_BOUND ( 'NONE', #209, .T. ) ;
#205 = DIRECTION ( 'NONE',  ( 1.000000000000000000, -0.0000000000000000000, -0.0000000000000000000 ) ) ;
#206 = CIRCLE ( 'NONE', #185, 5.000000000000000000 ) ;
#207 = DIRECTION ( 'NONE',  ( 0.0000000000000000000, 0.0000000000000000000, 1.000000000000000000 ) ) ;
#208 = PRESENTATION_STYLE_ASSIGNMENT (( #317 ) ) ;
#209 = EDGE_LOOP ( 'NONE', ( #174 ) ) ;
#210 = CARTESIAN_POINT ( 'NONE',  ( 51.33857789801869100, -1.969219965813635100, -0.03153911015672073600 ) ) ;
#211 = DIRECTION ( 'NONE',  ( 0.0000000000000000000, 0.0000000000000000000, 1.000000000000000000 ) ) ;
#212 = B_SPLINE_CURVE_WITH_KNOTS ( 'NONE', 3,
 ( #313, #192, #175, #176 ),
 .UNSPECIFIED., .F., .F.,
 ( 4, 4 ),
 ( 0.001295761321078244400, 0.001584892114497166200 ),
 .UNSPECIFIED. ) ;
#213 = DIRECTION ( 'NONE',  ( 0.0000000000000000000, 0.0000000000000000000, 1.000000000000000000 ) ) ;
#214 = LINE ( 'NONE', #95, #156 ) ;
#215 = EDGE_LOOP ( 'NONE', ( #253, #264, #308 ) ) ;
#216 = ORIENTED_EDGE ( 'NONE', *, *, #35, .T. ) ;
#217 = CARTESIAN_POINT ( 'NONE',  ( 50.37889243097672700, -1.855551639492109400, 0.3328056052742055000 ) ) ;
#218 = CARTESIAN_POINT ( 'NONE',  ( 50.99999999999995700, -0.1629283418418945000, -2.499999999999940900 ) ) ;
#219 = FACE_OUTER_BOUND ( 'NONE', #201, .T. ) ;
#220 = EDGE_LOOP ( 'NONE', ( #246 ) ) ;
#221 = AXIS2_PLACEMENT_3D ( 'NONE', #275, #301, #223 ) ;
#222 = CARTESIAN_POINT ( 'NONE',  ( 50.99999999999993600, 2.917541035416329500E-015, -2.499999999999982700 ) ) ;
#223 = DIRECTION ( 'NONE',  ( 0.0000000000000000000, 0.0000000000000000000, -1.000000000000000000 ) ) ;
#224 =( NAMED_UNIT ( * ) SI_UNIT ( $, .STERADIAN. ) SOLID_ANGLE_UNIT ( ) );
#225 = ORIENTED_EDGE ( 'NONE', *, *, #100, .F. ) ;
#226 = VERTEX_POINT ( 'NONE', #241 ) ;
#227 = STYLED_ITEM ( 'NONE', ( #208 ), #270 ) ;
#228 = VECTOR ( 'NONE', #34, 1000.000000000000000 ) ;
#229 = ORIENTED_EDGE ( 'NONE', *, *, #199, .F. ) ;
#230 = ORIENTED_EDGE ( 'NONE', *, *, #57, .F. ) ;
#231 = ORIENTED_EDGE ( 'NONE', *, *, #137, .F. ) ;
#232 = EDGE_CURVE ( 'NONE', #88, #64, #66, .T. ) ;
#233 = CARTESIAN_POINT ( 'NONE',  ( 51.70567436473572800, -2.281427600822368200, -1.401561775223779000 ) ) ;
#234 = DIRECTION ( 'NONE',  ( 0.0000000000000000000, 0.0000000000000000000, 1.000000000000000000 ) ) ;
#235 = DIRECTION ( 'NONE',  ( -1.000000000000000000, -0.0000000000000000000, -0.0000000000000000000 ) ) ;
#236 = ORIENTED_EDGE ( 'NONE', *, *, #127, .T. ) ;
#237 = EDGE_LOOP ( 'NONE', ( #92 ) ) ;
#238 = CARTESIAN_POINT ( 'NONE',  ( 49.99999999999998600, 0.0000000000000000000, 0.0000000000000000000 ) ) ;
#239 = ADVANCED_FACE ( 'NONE', ( #97 ), #75, .F. ) ;
#240 = CARTESIAN_POINT ( 'NONE',  ( 50.49121608494815000, -1.993640355126872900, -0.1197244539140258900 ) ) ;
#241 = CARTESIAN_POINT ( 'NONE',  ( 51.23260104390889300, 0.0000000000000000000, 0.3639718938073695000 ) ) ;
#242 = CARTESIAN_POINT ( 'NONE',  ( 50.11841034280354300, 1.003059713828204000, 1.280149052889208800 ) ) ;
#243 = ADVANCED_FACE ( 'NONE', ( #190 ), #295, .T. ) ;
#244 = DIRECTION ( 'NONE',  ( -1.000000000000000000, -0.0000000000000000000, -0.0000000000000000000 ) ) ;
#245 = CARTESIAN_POINT ( 'NONE',  ( 50.06164506058470900, 0.5576463233383588400, 1.467733189899392400 ) ) ;
#246 = ORIENTED_EDGE ( 'NONE', *, *, #30, .F. ) ;
#247 = AXIS2_PLACEMENT_3D ( 'NONE', #238, #4, #207 ) ;
#248 =( NAMED_UNIT ( * ) PLANE_ANGLE_UNIT ( ) SI_UNIT ( $, .RADIAN. ) );
#249 = CIRCLE ( 'NONE', #53, 2.000000000000000000 ) ;
#250 = CARTESIAN_POINT ( 'NONE',  ( 56.41154690949458200, 0.0000000000000000000, -18.96411720620767100 ) ) ;
#251 = FILL_AREA_STYLE ('',( #269 ) ) ;
#252 = AXIS2_PLACEMENT_3D ( 'NONE', #82, #67, #259 ) ;
#253 = ORIENTED_EDGE ( 'NONE', *, *, #155, .T. ) ;
#254 = VERTEX_POINT ( 'NONE', #197 ) ;
#255 = CARTESIAN_POINT ( 'NONE',  ( 50.97107686584296700, 0.8750769550951371700, 1.339993413757128800 ) ) ;
#256 = AXIS2_PLACEMENT_3D ( 'NONE', #9, #306, #10 ) ;
#257 =( BOUNDED_CURVE ( )  B_SPLINE_CURVE ( 3, ( #255, #203, #59, #283 ),
 .UNSPECIFIED., .F., .T. ) 
 B_SPLINE_CURVE_WITH_KNOTS ( ( 4, 4 ),
 ( 1.403434094736373000, 1.632481565736061200 ),
 .UNSPECIFIED. ) 
 CURVE ( )  GEOMETRIC_REPRESENTATION_ITEM ( )  RATIONAL_B_SPLINE_CURVE ( ( 1.000000000000000000, 0.9956328809476870900, 0.9956328809476870900, 1.000000000000000000 ) ) 
 REPRESENTATION_ITEM ( '' )  );
#258 = VECTOR ( 'NONE', #7, 1000.000000000000000 ) ;
#259 = DIRECTION ( 'NONE',  ( 0.0000000000000000000, 0.0000000000000000000, 1.000000000000000000 ) ) ;
#260 = PRESENTATION_LAYER_ASSIGNMENT (  '', '', ( #227 ) ) ;
#261 = AXIS2_PLACEMENT_3D ( 'NONE', #193, #48, #213 ) ;
#262 = CARTESIAN_POINT ( 'NONE',  ( 50.97107686584296700, 0.8750769550951371700, 1.339993413757128800 ) ) ;
#263 = FACE_OUTER_BOUND ( 'NONE', #58, .T. ) ;
#264 = ORIENTED_EDGE ( 'NONE', *, *, #57, .T. ) ;
#265 = CARTESIAN_POINT ( 'NONE',  ( 50.05069876570497900, -0.4131558470997215300, 1.503299710217503000 ) ) ;
#266 = FACE_BOUND ( 'NONE', #215, .T. ) ;
#267 = CARTESIAN_POINT ( 'NONE',  ( 50.77123737396726700, -1.823703342943657300, -1.362687333591401400 ) ) ;
#268 = DIRECTION ( 'NONE',  ( 0.7071067811865479100, 0.0000000000000000000, -0.7071067811865472400 ) ) ;
#269 = FILL_AREA_STYLE_COLOUR ( '', #289 ) ;
#270 = MANIFOLD_SOLID_BREP ( 'Schnitt-Linear austragen3', #126 ) ;
#271 =( GEOMETRIC_REPRESENTATION_CONTEXT ( 3 ) GLOBAL_UNCERTAINTY_ASSIGNED_CONTEXT ( ( #321 ) ) GLOBAL_UNIT_ASSIGNED_CONTEXT ( ( #182, #76, #151 ) ) REPRESENTATION_CONTEXT ( 'NONE', 'WORKASPACE' ) );
#272 = FACE_OUTER_BOUND ( 'NONE', #315, .T. ) ;
#273 = ORIENTED_EDGE ( 'NONE', *, *, #50, .T. ) ;
#274 = DIRECTION ( 'NONE',  ( 0.0000000000000000000, 0.0000000000000000000, 1.000000000000000000 ) ) ;
#275 = CARTESIAN_POINT ( 'NONE',  ( 50.99999999999999300, 0.0000000000000000000, 0.0000000000000000000 ) ) ;
#276 = AXIS2_PLACEMENT_3D ( 'NONE', #111, #39, #186 ) ;
#277 = APPLICATION_CONTEXT ( 'automotive_design' ) ;
#278 = LINE ( 'NONE', #134, #144 ) ;
#279 = FACE_OUTER_BOUND ( 'NONE', #101, .T. ) ;
#280 = UNCERTAINTY_MEASURE_WITH_UNIT (LENGTH_MEASURE( 1.000000000000000100E-005 ), #319, 'distance_accuracy_value', 'NONE');
#281 = PRESENTATION_LAYER_ASSIGNMENT (  '', '', ( #86 ) ) ;
#282 = CIRCLE ( 'NONE', #106, 5.000000000000000900 ) ;
#283 = CARTESIAN_POINT ( 'NONE',  ( 50.17268186721595000, 1.265519065179909100, 1.093766942533569400 ) ) ;
#284 = CONICAL_SURFACE ( 'NONE', #247, 1.500000000000000000, 0.02173570684179267400 ) ;
#285 = ORIENTED_EDGE ( 'NONE', *, *, #6, .T. ) ;
#286 = ADVANCED_FACE ( 'NONE', ( #272 ), #120, .F. ) ;
#287 = CARTESIAN_POINT ( 'NONE',  ( 52.00000000000000000, 0.0000000000000000000, -2.500000000000022200 ) ) ;
#288 = CARTESIAN_POINT ( 'NONE',  ( 50.17268186721595000, 1.265519065179909100, 1.093766942533569400 ) ) ;
#289 = COLOUR_RGB ( '',1.000000000000000000, 1.000000000000000000, 0.5019607843137254800 ) ;
#290 = EDGE_LOOP ( 'NONE', ( #103 ) ) ;
#291 = CARTESIAN_POINT ( 'NONE',  ( 50.97148143130164800, -1.657012330804901600, 1.338483554910337300 ) ) ;
#292 = CARTESIAN_POINT ( 'NONE',  ( 50.99999999999993600, 2.917541035416329500E-015, -2.499999999999982700 ) ) ;
#293 = CARTESIAN_POINT ( 'NONE',  ( 50.09816804596169200, -0.8731327985895992500, 1.348089957536436500 ) ) ;
#294 = CARTESIAN_POINT ( 'NONE',  ( 47.62228798199102900, 2.097029812239696900, -0.2806931669403975300 ) ) ;
#295 = CONICAL_SURFACE ( 'NONE', #221, 2.500000000000000000, 0.7853981633974479500 ) ;
#296 = DIRECTION ( 'NONE',  ( 0.0000000000000000000, 0.0000000000000000000, 1.000000000000000000 ) ) ;
#297 = CARTESIAN_POINT ( 'NONE',  ( 50.80073855284658900, -1.748920521900559000, -1.503370540697909700 ) ) ;
#298 = CARTESIAN_POINT ( 'NONE',  ( 47.27539631511186300, 1.438256833492423700, -1.559230514888874500 ) ) ;
#299 = CARTESIAN_POINT ( 'NONE',  ( 50.96998453447291400, -0.7937649763782710400, -2.344480173016030300 ) ) ;
#300 = AXIS2_PLACEMENT_3D ( 'NONE', #117, #244, #143 ) ;
#301 = DIRECTION ( 'NONE',  ( 1.000000000000000000, 0.0000000000000000000, 0.0000000000000000000 ) ) ;
#302 = CARTESIAN_POINT ( 'NONE',  ( 26.99999999999999600, 0.0000000000000000000, 2.000000000000000000 ) ) ;
#303 = ORIENTED_EDGE ( 'NONE', *, *, #320, .F. ) ;
#304 =( NAMED_UNIT ( * ) PLANE_ANGLE_UNIT ( ) SI_UNIT ( $, .RADIAN. ) );
#305 = CARTESIAN_POINT ( 'NONE',  ( 26.99999999999999600, 0.0000000000000000000, 0.0000000000000000000 ) ) ;
#306 = DIRECTION ( 'NONE',  ( -1.000000000000000000, -0.0000000000000000000, -0.0000000000000000000 ) ) ;
#307 = EDGE_LOOP ( 'NONE', ( #161 ) ) ;
#308 = ORIENTED_EDGE ( 'NONE', *, *, #25, .T. ) ;
#309 = CARTESIAN_POINT ( 'NONE',  ( 17.63067258709322600, 7.500482429340849000, -22.63067258709328700 ) ) ;
#310 = CARTESIAN_POINT ( 'NONE',  ( 49.99999999999998600, 1.225664915588002800, 0.8647227964478904100 ) ) ;
#311 = VERTEX_POINT ( 'NONE', #74 ) ;
#312 = CARTESIAN_POINT ( 'NONE',  ( 50.56630478483099700, -2.025519589598015800, -0.4368983514152281500 ) ) ;
#313 = CARTESIAN_POINT ( 'NONE',  ( 50.17268186721595000, 1.265519065179909100, 1.093766942533569400 ) ) ;
#314 = CARTESIAN_POINT ( 'NONE',  ( 50.87972426655601100, -1.456678666481271900, -1.888536936859813100 ) ) ;
#315 = EDGE_LOOP ( 'NONE', ( #216, #303, #157 ) ) ;
#316 =( NAMED_UNIT ( * ) SI_UNIT ( $, .STERADIAN. ) SOLID_ANGLE_UNIT ( ) );
#317 = SURFACE_STYLE_USAGE ( .BOTH. , #56 ) ;
#318 = APPLICATION_CONTEXT ( 'automotive_design' ) ;
#319 =( LENGTH_UNIT ( ) NAMED_UNIT ( * ) SI_UNIT ( .MILLI., .METRE. ) );
#320 = EDGE_CURVE ( 'NONE', #226, #77, #136, .T. ) ;
#321 = UNCERTAINTY_MEASURE_WITH_UNIT (LENGTH_MEASURE( 1.000000000000000100E-005 ), #182, 'distance_accuracy_value', 'NONE');
ENDSEC;
END-ISO-10303-21;
