ISO-10303-21;
HEADER;
FILE_DESCRIPTION (( 'STEP AP214' ),
    '1' );
FILE_NAME ('U10.B05.001.025.STEP',
    '2020-10-01T11:35:35',
    ( '' ),
    ( '' ),
    'SwSTEP 2.0',
    'SolidWorks 2017',
    '' );
FILE_SCHEMA (( 'AUTOMOTIVE_DESIGN' ));
ENDSEC;

DATA;
#1 = DIRECTION ( 'NONE',  ( 0.0000000000000000000, 0.0000000000000000000, 1.000000000000000000 ) ) ;
#2 = CONICAL_SURFACE ( 'NONE', #128, 2.500000000000000000, 0.7853981633974479500 ) ;
#3 = DIRECTION ( 'NONE',  ( 1.000000000000000000, 0.0000000000000000000, 0.0000000000000000000 ) ) ;
#4 = DIRECTION ( 'NONE',  ( 1.000000000000000000, 0.0000000000000000000, 0.0000000000000000000 ) ) ;
#5 = PRESENTATION_STYLE_ASSIGNMENT (( #276 ) ) ;
#6 = APPLICATION_CONTEXT ( 'automotive_design' ) ;
#7 = DIRECTION ( 'NONE',  ( -0.4999999999999995000, -0.7071067811865472400, 0.5000000000000011100 ) ) ;
#8 = CARTESIAN_POINT ( 'NONE',  ( 47.27539631511186300, 1.438256833492423700, -1.559230514888874500 ) ) ;
#9 = EDGE_CURVE ( 'NONE', #94, #16, #110, .T. ) ;
#10 = ADVANCED_FACE ( 'NONE', ( #188 ), #46, .F. ) ;
#11 = ADVANCED_FACE ( 'NONE', ( #22 ), #70, .F. ) ;
#12 = EDGE_CURVE ( 'NONE', #37, #282, #195, .T. ) ;
#13 = CIRCLE ( 'NONE', #168, 2.000000000000000000 ) ;
#14 = CARTESIAN_POINT ( 'NONE',  ( 50.09816804596169200, -0.8731327985895992500, 1.348089957536436500 ) ) ;
#15 = CARTESIAN_POINT ( 'NONE',  ( 50.56630478483099700, -2.025519589598015800, -0.4368983514152281500 ) ) ;
#16 = VERTEX_POINT ( 'NONE', #124 ) ;
#17 = CARTESIAN_POINT ( 'NONE',  ( 50.05069876570497900, -0.4131558470997215300, 1.503299710217503000 ) ) ;
#18 = CARTESIAN_POINT ( 'NONE',  ( 50.99999999999999300, 0.0000000000000000000, 0.0000000000000000000 ) ) ;
#19 = FACE_OUTER_BOUND ( 'NONE', #297, .T. ) ;
#20 = AXIS2_PLACEMENT_3D ( 'NONE', #120, #86, #137 ) ;
#21 = CARTESIAN_POINT ( 'NONE',  ( 49.99999999999998600, 1.225664915588002800, 0.8647227964478904100 ) ) ;
#22 = FACE_OUTER_BOUND ( 'NONE', #315, .T. ) ;
#23 = DIRECTION ( 'NONE',  ( -1.000000000000000000, -0.0000000000000000000, -0.0000000000000000000 ) ) ;
#24 = ORIENTED_EDGE ( 'NONE', *, *, #82, .T. ) ;
#25 = DIRECTION ( 'NONE',  ( -1.000000000000000000, -0.0000000000000000000, -0.0000000000000000000 ) ) ;
#26 = CONICAL_SURFACE ( 'NONE', #299, 1.500000000000000000, 0.02173570684179267400 ) ;
#27 = PRODUCT_DEFINITION_SHAPE ( 'NONE', 'NONE',  #218 ) ;
#28 = PRODUCT_CONTEXT ( 'NONE', #6, 'mechanical' ) ;
#29 = CIRCLE ( 'NONE', #115, 1.500000000000000000 ) ;
#30 = EDGE_CURVE ( 'NONE', #265, #265, #33, .T. ) ;
#31 = ORIENTED_EDGE ( 'NONE', *, *, #223, .T. ) ;
#32 = ORIENTED_EDGE ( 'NONE', *, *, #223, .F. ) ;
#33 = CIRCLE ( 'NONE', #87, 5.000000000000000900 ) ;
#34 = FACE_OUTER_BOUND ( 'NONE', #269, .T. ) ;
#35 = ORIENTED_EDGE ( 'NONE', *, *, #82, .F. ) ;
#36 = CARTESIAN_POINT ( 'NONE',  ( 50.49121608494815000, -1.993640355126872900, -0.1197244539140258900 ) ) ;
#37 = VERTEX_POINT ( 'NONE', #185 ) ;
#38 = CARTESIAN_POINT ( 'NONE',  ( 50.87972426655601100, -1.456678666481271900, -1.888536936859813100 ) ) ;
#39 = LINE ( 'NONE', #119, #170 ) ;
#40 = CARTESIAN_POINT ( 'NONE',  ( 50.14619025461039600, -1.152891102975391700, 1.185896611642362800 ) ) ;
#41 = DIRECTION ( 'NONE',  ( 0.0000000000000000000, 0.0000000000000000000, -1.000000000000000000 ) ) ;
#42 = ORIENTED_EDGE ( 'NONE', *, *, #30, .T. ) ;
#43 = MECHANICAL_DESIGN_GEOMETRIC_PRESENTATION_REPRESENTATION (  '', ( #183 ), #306 ) ;
#44 = DIRECTION ( 'NONE',  ( -1.000000000000000000, -0.0000000000000000000, -0.0000000000000000000 ) ) ;
#45 = PLANE ( 'NONE',  #181 ) ;
#46 = PLANE ( 'NONE',  #212 ) ;
#47 = CARTESIAN_POINT ( 'NONE',  ( 22.93431457505067400, 0.0000000000000000000, -27.93431457505075600 ) ) ;
#48 = EDGE_CURVE ( 'NONE', #246, #246, #278, .T. ) ;
#49 = CARTESIAN_POINT ( 'NONE',  ( 49.35459868677045100, 0.0000000000000000000, -1.514030463331067500 ) ) ;
#50 = CARTESIAN_POINT ( 'NONE',  ( 50.11408566176567800, 1.253457142152314000, 1.018112601949378200 ) ) ;
#51 = UNCERTAINTY_MEASURE_WITH_UNIT (LENGTH_MEASURE( 1.000000000000000100E-005 ), #93, 'distance_accuracy_value', 'NONE');
#52 = CLOSED_SHELL ( 'NONE', ( #153, #11, #207, #57, #129, #75, #108, #307, #179, #10 ) ) ;
#53 = MECHANICAL_DESIGN_GEOMETRIC_PRESENTATION_REPRESENTATION (  '', ( #71 ), #138 ) ;
#54 = CARTESIAN_POINT ( 'NONE',  ( 51.70567436473572800, -2.281427600822368200, -1.401561775223779000 ) ) ;
#55 = LINE ( 'NONE', #92, #155 ) ;
#56 = EDGE_CURVE ( 'NONE', #94, #300, #121, .T. ) ;
#57 = ADVANCED_FACE ( 'NONE', ( #305, #34 ), #222, .T. ) ;
#58 = ORIENTED_EDGE ( 'NONE', *, *, #206, .F. ) ;
#59 = CARTESIAN_POINT ( 'NONE',  ( 50.67329715174878400, -1.979944498838028100, -0.9092910759202523800 ) ) ;
#60 = CARTESIAN_POINT ( 'NONE',  ( 50.37889243097672700, -1.855551639492109400, 0.3328056052742055000 ) ) ;
#61 = EDGE_CURVE ( 'NONE', #282, #74, #55, .T. ) ;
#62 = DIRECTION ( 'NONE',  ( -1.000000000000000000, -0.0000000000000000000, -0.0000000000000000000 ) ) ;
#63 = CARTESIAN_POINT ( 'NONE',  ( 1.000000000000000900, 0.0000000000000000000, 5.000000000000000900 ) ) ;
#64 = ORIENTED_EDGE ( 'NONE', *, *, #9, .F. ) ;
#65 = CARTESIAN_POINT ( 'NONE',  ( 25.26794919243109700, 0.0000000000000000000, 5.000000000000000000 ) ) ;
#66 = CYLINDRICAL_SURFACE ( 'NONE', #151, 2.019705169215367100 ) ;
#67 = CARTESIAN_POINT ( 'NONE',  ( 50.96998453447291400, -0.7937649763782710400, -2.344480173016030300 ) ) ;
#68 = CARTESIAN_POINT ( 'NONE',  ( 22.93431457505067400, 0.0000000000000000000, -27.93431457505075600 ) ) ;
#69 = ORIENTED_EDGE ( 'NONE', *, *, #141, .F. ) ;
#70 = PLANE ( 'NONE',  #268 ) ;
#71 = STYLED_ITEM ( 'NONE', ( #5 ), #221 ) ;
#72 = FILL_AREA_STYLE ('',( #240 ) ) ;
#73 = CARTESIAN_POINT ( 'NONE',  ( 47.62228798199102900, 2.097029812239696900, -0.2806931669403975300 ) ) ;
#74 = VERTEX_POINT ( 'NONE', #272 ) ;
#75 = ADVANCED_FACE ( 'NONE', ( #286, #313 ), #76, .T. ) ;
#76 = CONICAL_SURFACE ( 'NONE', #253, 2.000000000000000000, 1.047197551196592300 ) ;
#77 = UNCERTAINTY_MEASURE_WITH_UNIT (LENGTH_MEASURE( 1.000000000000000100E-005 ), #125, 'distance_accuracy_value', 'NONE');
#78 = ORIENTED_EDGE ( 'NONE', *, *, #317, .F. ) ;
#79 = CARTESIAN_POINT ( 'NONE',  ( 50.70767643534126300, -1.939350594117679400, -1.066323571691516500 ) ) ;
#80 = ORIENTED_EDGE ( 'NONE', *, *, #178, .T. ) ;
#81 = DIRECTION ( 'NONE',  ( -1.000000000000000000, -0.0000000000000000000, -0.0000000000000000000 ) ) ;
#82 = EDGE_CURVE ( 'NONE', #94, #154, #156, .T. ) ;
#83 = DIRECTION ( 'NONE',  ( 0.0000000000000000000, 0.0000000000000000000, 1.000000000000000000 ) ) ;
#84 = FACE_OUTER_BOUND ( 'NONE', #95, .T. ) ;
#85 = CARTESIAN_POINT ( 'NONE',  ( -79.66162912480135100, 0.0000000000000000000, 0.0000000000000000000 ) ) ;
#86 = DIRECTION ( 'NONE',  ( -1.000000000000000000, -0.0000000000000000000, -0.0000000000000000000 ) ) ;
#87 = AXIS2_PLACEMENT_3D ( 'NONE', #245, #25, #144 ) ;
#88 = CARTESIAN_POINT ( 'NONE',  ( 50.07862550965381100, -0.7234258586168023100, 1.412322426922453900 ) ) ;
#89 = DIRECTION ( 'NONE',  ( 0.7071067811865479100, 0.0000000000000000000, -0.7071067811865472400 ) ) ;
#90 = CYLINDRICAL_SURFACE ( 'NONE', #107, 5.000000000000000900 ) ;
#91 = DIRECTION ( 'NONE',  ( 0.0000000000000000000, -1.000000000000000000, 0.0000000000000000000 ) ) ;
#92 = CARTESIAN_POINT ( 'NONE',  ( 118.9999999999999600, 0.0000000000000000000, 0.0000000000000000000 ) ) ;
#93 =( LENGTH_UNIT ( ) NAMED_UNIT ( * ) SI_UNIT ( .MILLI., .METRE. ) );
#94 = VERTEX_POINT ( 'NONE', #213 ) ;
#95 = EDGE_LOOP ( 'NONE', ( #32 ) ) ;
#96 = SURFACE_SIDE_STYLE ('',( #105 ) ) ;
#97 = CARTESIAN_POINT ( 'NONE',  ( 50.99999999999993600, 2.917541035416329500E-015, -2.499999999999982700 ) ) ;
#98 = AXIS2_PLACEMENT_3D ( 'NONE', #301, #23, #304 ) ;
#99 = CARTESIAN_POINT ( 'NONE',  ( 17.63067258709322600, 7.500482429340849000, -22.63067258709328700 ) ) ;
#100 = CARTESIAN_POINT ( 'NONE',  ( 49.35459868677045100, 0.0000000000000000000, -1.514030463331067500 ) ) ;
#101 =( NAMED_UNIT ( * ) SI_UNIT ( $, .STERADIAN. ) SOLID_ANGLE_UNIT ( ) );
#102 = EDGE_LOOP ( 'NONE', ( #64, #24, #308, #237 ) ) ;
#103 = CARTESIAN_POINT ( 'NONE',  ( 49.99999999999998600, 1.225664915588002800, 0.8647227964478904100 ) ) ;
#104 = EDGE_LOOP ( 'NONE', ( #310 ) ) ;
#105 = SURFACE_STYLE_FILL_AREA ( #192 ) ;
#106 = EDGE_LOOP ( 'NONE', ( #294 ) ) ;
#107 = AXIS2_PLACEMENT_3D ( 'NONE', #85, #159, #163 ) ;
#108 = ADVANCED_FACE ( 'NONE', ( #84, #274 ), #26, .T. ) ;
#109 = EDGE_LOOP ( 'NONE', ( #204 ) ) ;
#110 =( BOUNDED_CURVE ( )  B_SPLINE_CURVE ( 3, ( #200, #148, #220, #275, #54, #228, #251 ),
 .UNSPECIFIED., .F., .T. ) 
 B_SPLINE_CURVE_WITH_KNOTS ( ( 4, 3, 4 ),
 ( 2.693475176977928600, 4.488330242078757400, 6.283185307179586200 ),
 .UNSPECIFIED. ) 
 CURVE ( )  GEOMETRIC_REPRESENTATION_ITEM ( )  RATIONAL_B_SPLINE_CURVE ( ( 1.000000000000000000, 0.7490819948314178000, 0.7490819948314178000, 1.000000000000000000, 0.7490819948314178000, 0.7490819948314178000, 1.000000000000000000 ) ) 
 REPRESENTATION_ITEM ( '' )  );
#111 = CARTESIAN_POINT ( 'NONE',  ( 50.11841034280354300, 1.003059713828204000, 1.280149052889208800 ) ) ;
#112 = VERTEX_POINT ( 'NONE', #171 ) ;
#113 = DIRECTION ( 'NONE',  ( 1.000000000000000000, 0.0000000000000000000, 0.0000000000000000000 ) ) ;
#114 = ORIENTED_EDGE ( 'NONE', *, *, #257, .F. ) ;
#115 = AXIS2_PLACEMENT_3D ( 'NONE', #191, #44, #83 ) ;
#116 = CARTESIAN_POINT ( 'NONE',  ( 50.99999999999993600, 2.917541035416329500E-015, -2.499999999999982700 ) ) ;
#117 = CARTESIAN_POINT ( 'NONE',  ( 50.35421045636125800, -5.000000000000000900, 3.642170195425509200 ) ) ;
#118 = ORIENTED_EDGE ( 'NONE', *, *, #296, .T. ) ;
#119 = CARTESIAN_POINT ( 'NONE',  ( 48.49999999999998600, 0.0000000000000000000, 0.0000000000000000000 ) ) ;
#120 = CARTESIAN_POINT ( 'NONE',  ( 1.000000000000000900, 0.0000000000000000000, 0.0000000000000000000 ) ) ;
#121 = LINE ( 'NONE', #193, #234 ) ;
#122 =( NAMED_UNIT ( * ) PLANE_ANGLE_UNIT ( ) SI_UNIT ( $, .RADIAN. ) );
#123 = APPLICATION_PROTOCOL_DEFINITION ( 'draft international standard', 'automotive_design', 1998, #303 ) ;
#124 = CARTESIAN_POINT ( 'NONE',  ( 52.00000000000000000, 0.0000000000000000000, -2.500000000000022200 ) ) ;
#125 =( LENGTH_UNIT ( ) NAMED_UNIT ( * ) SI_UNIT ( .MILLI., .METRE. ) );
#126 = AXIS2_PLACEMENT_3D ( 'NONE', #139, #146, #4 ) ;
#127 = SURFACE_SIDE_STYLE ('',( #244 ) ) ;
#128 = AXIS2_PLACEMENT_3D ( 'NONE', #18, #113, #41 ) ;
#129 = ADVANCED_FACE ( 'NONE', ( #19, #230 ), #90, .T. ) ;
#130 = CARTESIAN_POINT ( 'NONE',  ( 49.99999999999998600, 0.0000000000000000000, 0.0000000000000000000 ) ) ;
#131 = VECTOR ( 'NONE', #196, 1000.000000000000000 ) ;
#132 = CARTESIAN_POINT ( 'NONE',  ( 50.14400964715416400, 1.141319568043103200, 1.193621239344967400 ) ) ;
#133 = EDGE_LOOP ( 'NONE', ( #166 ) ) ;
#134 = CARTESIAN_POINT ( 'NONE',  ( 50.27061957431183000, -1.614098420932130100, 0.7440066811557635200 ) ) ;
#135 = FACE_OUTER_BOUND ( 'NONE', #102, .T. ) ;
#136 = DIRECTION ( 'NONE',  ( 1.000000000000000000, -0.0000000000000000000, -0.0000000000000000000 ) ) ;
#137 = DIRECTION ( 'NONE',  ( 0.0000000000000000000, 0.0000000000000000000, 1.000000000000000000 ) ) ;
#138 =( GEOMETRIC_REPRESENTATION_CONTEXT ( 3 ) GLOBAL_UNCERTAINTY_ASSIGNED_CONTEXT ( ( #77 ) ) GLOBAL_UNIT_ASSIGNED_CONTEXT ( ( #125, #249, #101 ) ) REPRESENTATION_CONTEXT ( 'NONE', 'WORKASPACE' ) );
#139 = CARTESIAN_POINT ( 'NONE',  ( 0.0000000000000000000, 0.0000000000000000000, 0.0000000000000000000 ) ) ;
#140 = CARTESIAN_POINT ( 'NONE',  ( 56.41154690949458200, 0.0000000000000000000, -18.96411720620767100 ) ) ;
#141 = EDGE_CURVE ( 'NONE', #74, #37, #29, .T. ) ;
#142 = ORIENTED_EDGE ( 'NONE', *, *, #160, .F. ) ;
#143 = CARTESIAN_POINT ( 'NONE',  ( 51.23260104390889300, 0.0000000000000000000, 0.3639718938073695000 ) ) ;
#144 = DIRECTION ( 'NONE',  ( 0.0000000000000000000, 0.0000000000000000000, 1.000000000000000000 ) ) ;
#145 = ORIENTED_EDGE ( 'NONE', *, *, #178, .F. ) ;
#146 = DIRECTION ( 'NONE',  ( 0.0000000000000000000, 0.0000000000000000000, 1.000000000000000000 ) ) ;
#147 = EDGE_CURVE ( 'NONE', #180, #180, #215, .T. ) ;
#148 = CARTESIAN_POINT ( 'NONE',  ( 50.80794747253102600, -0.3913311634853902100, 1.948800597805183900 ) ) ;
#149 = LINE ( 'NONE', #140, #291 ) ;
#150 = DIRECTION ( 'NONE',  ( 0.9997637888239162600, 0.0000000000000000000, 0.02173399540921558100 ) ) ;
#151 = AXIS2_PLACEMENT_3D ( 'NONE', #190, #136, #263 ) ;
#152 = ORIENTED_EDGE ( 'NONE', *, *, #61, .T. ) ;
#153 = ADVANCED_FACE ( 'NONE', ( #205 ), #2, .T. ) ;
#154 = VERTEX_POINT ( 'NONE', #288 ) ;
#155 = VECTOR ( 'NONE', #150, 1000.000000000000000 ) ;
#156 =( BOUNDED_CURVE ( )  B_SPLINE_CURVE ( 3, ( #316, #318, #258, #311 ),
 .UNSPECIFIED., .F., .T. ) 
 B_SPLINE_CURVE_WITH_KNOTS ( ( 4, 4 ),
 ( 1.403434094736373000, 1.632481565736061200 ),
 .UNSPECIFIED. ) 
 CURVE ( )  GEOMETRIC_REPRESENTATION_ITEM ( )  RATIONAL_B_SPLINE_CURVE ( ( 1.000000000000000000, 0.9956328809476870900, 0.9956328809476870900, 1.000000000000000000 ) ) 
 REPRESENTATION_ITEM ( '' )  );
#157 = VECTOR ( 'NONE', #289, 1000.000000000000000 ) ;
#158 = ORIENTED_EDGE ( 'NONE', *, *, #206, .T. ) ;
#159 = DIRECTION ( 'NONE',  ( -1.000000000000000000, -0.0000000000000000000, -0.0000000000000000000 ) ) ;
#160 = EDGE_CURVE ( 'NONE', #154, #250, #298, .T. ) ;
#161 = ORIENTED_EDGE ( 'NONE', *, *, #296, .F. ) ;
#162 = CARTESIAN_POINT ( 'NONE',  ( 50.34141383724058000, -1.785013707479894000, 0.4778043126780817700 ) ) ;
#163 = DIRECTION ( 'NONE',  ( 0.0000000000000000000, 0.0000000000000000000, 1.000000000000000000 ) ) ;
#164 = FACE_OUTER_BOUND ( 'NONE', #242, .T. ) ;
#165 = PRESENTATION_LAYER_ASSIGNMENT (  '', '', ( #183 ) ) ;
#166 = ORIENTED_EDGE ( 'NONE', *, *, #48, .T. ) ;
#167 = PRODUCT_DEFINITION_CONTEXT ( 'detailed design', #303, 'design' ) ;
#168 = AXIS2_PLACEMENT_3D ( 'NONE', #267, #292, #1 ) ;
#169 = CARTESIAN_POINT ( 'NONE',  ( 50.05641545464034400, 1.240301820829835500, 0.9418379609924234500 ) ) ;
#170 = VECTOR ( 'NONE', #89, 999.9999999999998900 ) ;
#171 = CARTESIAN_POINT ( 'NONE',  ( 26.99999999999999600, 0.0000000000000000000, 2.000000000000000000 ) ) ;
#172 = ORIENTED_EDGE ( 'NONE', *, *, #56, .F. ) ;
#173 = DIRECTION ( 'NONE',  ( -0.2588190451025145200, 0.0000000000000000000, 0.9659258262890699800 ) ) ;
#174 = B_SPLINE_CURVE_WITH_KNOTS ( 'NONE', 3,
 ( #198, #50, #169, #21 ),
 .UNSPECIFIED., .F., .F.,
 ( 4, 4 ),
 ( 0.001295761321078244400, 0.001584892114497166200 ),
 .UNSPECIFIED. ) ;
#175 = SURFACE_STYLE_USAGE ( .BOTH. , #96 ) ;
#176 =( LENGTH_UNIT ( ) NAMED_UNIT ( * ) SI_UNIT ( .MILLI., .METRE. ) );
#177 = ORIENTED_EDGE ( 'NONE', *, *, #61, .F. ) ;
#178 = EDGE_CURVE ( 'NONE', #74, #250, #39, .T. ) ;
#179 = ADVANCED_FACE ( 'NONE', ( #135 ), #66, .T. ) ;
#180 = VERTEX_POINT ( 'NONE', #65 ) ;
#181 = AXIS2_PLACEMENT_3D ( 'NONE', #68, #91, #321 ) ;
#182 = ORIENTED_EDGE ( 'NONE', *, *, #30, .F. ) ;
#183 = STYLED_ITEM ( 'NONE', ( #281 ), #239 ) ;
#184 = UNCERTAINTY_MEASURE_WITH_UNIT (LENGTH_MEASURE( 1.000000000000000100E-005 ), #176, 'distance_accuracy_value', 'NONE');
#185 = CARTESIAN_POINT ( 'NONE',  ( 49.99999999999998600, 1.225664915588002800, 0.8647227964478904100 ) ) ;
#186 = ORIENTED_EDGE ( 'NONE', *, *, #12, .F. ) ;
#187 = CARTESIAN_POINT ( 'NONE',  ( 50.03781048773990400, 0.07424773959101947700, 1.544540421867468100 ) ) ;
#188 = FACE_OUTER_BOUND ( 'NONE', #284, .T. ) ;
#189 = CARTESIAN_POINT ( 'NONE',  ( 50.85550509649221600, -1.563668928973900100, -1.768839118227273100 ) ) ;
#190 = CARTESIAN_POINT ( 'NONE',  ( 49.99999999999999300, 0.0000000000000000000, -0.4802948307845697500 ) ) ;
#191 = CARTESIAN_POINT ( 'NONE',  ( 49.99999999999998600, 0.0000000000000000000, 0.0000000000000000000 ) ) ;
#192 = FILL_AREA_STYLE ('',( #197 ) ) ;
#193 = CARTESIAN_POINT ( 'NONE',  ( 52.27064194550806800, -3.473352552537672700, -3.510049491295432800 ) ) ;
#194 = ORIENTED_EDGE ( 'NONE', *, *, #12, .T. ) ;
#195 =( BOUNDED_CURVE ( )  B_SPLINE_CURVE ( 3, ( #103, #73, #8, #100 ),
 .UNSPECIFIED., .F., .F. ) 
 B_SPLINE_CURVE_WITH_KNOTS ( ( 4, 4 ),
 ( 5.017568847758121300, 7.269592183135364900 ),
 .UNSPECIFIED. ) 
 CURVE ( )  GEOMETRIC_REPRESENTATION_ITEM ( )  RATIONAL_B_SPLINE_CURVE ( ( 1.000000000000000000, 0.6201756675563379100, 0.6201756675563379100, 1.000000000000000000 ) ) 
 REPRESENTATION_ITEM ( '' )  );
#196 = DIRECTION ( 'NONE',  ( 1.000000000000000000, 0.0000000000000000000, 0.0000000000000000000 ) ) ;
#197 = FILL_AREA_STYLE_COLOUR ( '', #261 ) ;
#198 = CARTESIAN_POINT ( 'NONE',  ( 50.17268186721595000, 1.265519065179909100, 1.093766942533569400 ) ) ;
#199 = DIRECTION ( 'NONE',  ( -1.000000000000000000, -0.0000000000000000000, -0.0000000000000000000 ) ) ;
#200 = CARTESIAN_POINT ( 'NONE',  ( 50.97107686584296700, 0.8750769550951371700, 1.339993413757128800 ) ) ;
#201 = PRESENTATION_LAYER_ASSIGNMENT (  '', '', ( #71 ) ) ;
#202 = DIRECTION ( 'NONE',  ( 0.0000000000000000000, -0.5773502691896266200, -0.8164965809277252600 ) ) ;
#203 = LINE ( 'NONE', #219, #131 ) ;
#204 = ORIENTED_EDGE ( 'NONE', *, *, #147, .T. ) ;
#205 = FACE_OUTER_BOUND ( 'NONE', #280, .T. ) ;
#206 = EDGE_CURVE ( 'NONE', #300, #16, #149, .T. ) ;
#207 = ADVANCED_FACE ( 'NONE', ( #255 ), #290, .F. ) ;
#208 = CARTESIAN_POINT ( 'NONE',  ( 50.60289667344177600, -2.022586179338694600, -0.5958938963845512600 ) ) ;
#209 = CARTESIAN_POINT ( 'NONE',  ( 50.04176770351635600, 0.2380051729112802300, 1.531951707035818000 ) ) ;
#210 = ORIENTED_EDGE ( 'NONE', *, *, #9, .T. ) ;
#211 = CARTESIAN_POINT ( 'NONE',  ( 50.23646041154369600, -1.511885082674087500, 0.8684281309936431300 ) ) ;
#212 = AXIS2_PLACEMENT_3D ( 'NONE', #117, #271, #173 ) ;
#213 = CARTESIAN_POINT ( 'NONE',  ( 50.97107686584296700, 0.8750769550951371700, 1.339993413757128800 ) ) ;
#214 =( NAMED_UNIT ( * ) PLANE_ANGLE_UNIT ( ) SI_UNIT ( $, .RADIAN. ) );
#215 = CIRCLE ( 'NONE', #225, 5.000000000000000000 ) ;
#216 = CARTESIAN_POINT ( 'NONE',  ( 50.99999999999995700, -0.1629283418418945000, -2.499999999999940900 ) ) ;
#217 = ORIENTED_EDGE ( 'NONE', *, *, #56, .T. ) ;
#218 = PRODUCT_DEFINITION ( 'UNKNOWN', '', #231, #167 ) ;
#219 = CARTESIAN_POINT ( 'NONE',  ( -79.66162912480135100, 0.0000000000000000000, -2.500000000000000000 ) ) ;
#220 = CARTESIAN_POINT ( 'NONE',  ( 50.97148143130164800, -1.657012330804901600, 1.338483554910337300 ) ) ;
#221 = ADVANCED_BREP_SHAPE_REPRESENTATION ( 'U10.B05.001.025', ( #239, #126 ), #309 ) ;
#222 = TOROIDAL_SURFACE ( 'NONE', #20, 4.000000000000000000, 1.000000000000000400 ) ;
#223 = EDGE_CURVE ( 'NONE', #112, #112, #13, .T. ) ;
#224 = DIRECTION ( 'NONE',  ( 0.1956488079738468200, -0.6546536707079764200, -0.7301712917987019900 ) ) ;
#225 = AXIS2_PLACEMENT_3D ( 'NONE', #256, #62, #260 ) ;
#226 = COLOUR_RGB ( '',1.000000000000000000, 1.000000000000000000, 0.5019607843137254800 ) ;
#227 = LINE ( 'NONE', #47, #157 ) ;
#228 = CARTESIAN_POINT ( 'NONE',  ( 51.99999999999996400, -1.405146152595946300, -2.499999999999937400 ) ) ;
#229 = ORIENTED_EDGE ( 'NONE', *, *, #257, .T. ) ;
#230 = FACE_OUTER_BOUND ( 'NONE', #109, .T. ) ;
#231 = PRODUCT_DEFINITION_FORMATION_WITH_SPECIFIED_SOURCE ( 'ANY', '', #243, .NOT_KNOWN. ) ;
#232 = ORIENTED_EDGE ( 'NONE', *, *, #141, .T. ) ;
#233 = CARTESIAN_POINT ( 'NONE',  ( 50.92227690312010000, -1.215539568489686400, -2.101258162924072100 ) ) ;
#234 = VECTOR ( 'NONE', #224, 1000.000000000000000 ) ;
#235 = DIRECTION ( 'NONE',  ( 0.0000000000000000000, 0.0000000000000000000, 1.000000000000000000 ) ) ;
#236 = PRODUCT_RELATED_PRODUCT_CATEGORY ( 'part', '', ( #243 ) ) ;
#237 = ORIENTED_EDGE ( 'NONE', *, *, #317, .T. ) ;
#238 = CARTESIAN_POINT ( 'NONE',  ( 50.07722116512153600, 0.7105637068539116800, 1.417174714576188200 ) ) ;
#239 = MANIFOLD_SOLID_BREP ( 'Schnitt-Linear austragen3', #52 ) ;
#240 = FILL_AREA_STYLE_COLOUR ( '', #226 ) ;
#241 = CARTESIAN_POINT ( 'NONE',  ( 0.0000000000000000000, 0.0000000000000000000, 0.0000000000000000000 ) ) ;
#242 = EDGE_LOOP ( 'NONE', ( #229, #158, #78, #145, #177 ) ) ;
#243 = PRODUCT ( 'U10.B05.001.025', 'U10.B05.001.025', '', ( #28 ) ) ;
#244 = SURFACE_STYLE_FILL_AREA ( #72 ) ;
#245 = CARTESIAN_POINT ( 'NONE',  ( 1.000000000000000900, 0.0000000000000000000, 0.0000000000000000000 ) ) ;
#246 = VERTEX_POINT ( 'NONE', #293 ) ;
#247 = CARTESIAN_POINT ( 'NONE',  ( 50.94070392617914000, -1.079697103674653700, -2.194793005829380300 ) ) ;
#248 = EDGE_LOOP ( 'NONE', ( #194, #152, #232 ) ) ;
#249 =( NAMED_UNIT ( * ) PLANE_ANGLE_UNIT ( ) SI_UNIT ( $, .RADIAN. ) );
#250 = VERTEX_POINT ( 'NONE', #97 ) ;
#251 = CARTESIAN_POINT ( 'NONE',  ( 52.00000000000000000, 0.0000000000000000000, -2.500000000000022200 ) ) ;
#252 = CARTESIAN_POINT ( 'NONE',  ( 26.99999999999999600, 0.0000000000000000000, 0.0000000000000000000 ) ) ;
#253 = AXIS2_PLACEMENT_3D ( 'NONE', #252, #199, #254 ) ;
#254 = DIRECTION ( 'NONE',  ( 0.0000000000000000000, 0.0000000000000000000, 1.000000000000000000 ) ) ;
#255 = FACE_OUTER_BOUND ( 'NONE', #133, .T. ) ;
#256 = CARTESIAN_POINT ( 'NONE',  ( 25.26794919243109700, 0.0000000000000000000, 0.0000000000000000000 ) ) ;
#257 = EDGE_CURVE ( 'NONE', #282, #300, #227, .T. ) ;
#258 = CARTESIAN_POINT ( 'NONE',  ( 50.43984533664782800, 1.145077323524905000, 1.190600067441097700 ) ) ;
#259 = CARTESIAN_POINT ( 'NONE',  ( 50.04219739893804300, -0.2495552442288486200, 1.530474352213492700 ) ) ;
#260 = DIRECTION ( 'NONE',  ( 0.0000000000000000000, 0.0000000000000000000, 1.000000000000000000 ) ) ;
#261 = COLOUR_RGB ( '',1.000000000000000000, 1.000000000000000000, 0.5019607843137254800 ) ;
#262 = CARTESIAN_POINT ( 'NONE',  ( 50.45374013884119100, -1.959471217710723600, 0.03417261512826742100 ) ) ;
#263 = DIRECTION ( 'NONE',  ( 0.0000000000000000000, 0.0000000000000000000, -1.000000000000000000 ) ) ;
#264 = CARTESIAN_POINT ( 'NONE',  ( 50.98122351364079900, -0.6408775882291901600, -2.402573886088488700 ) ) ;
#265 = VERTEX_POINT ( 'NONE', #63 ) ;
#266 =( NAMED_UNIT ( * ) SI_UNIT ( $, .STERADIAN. ) SOLID_ANGLE_UNIT ( ) );
#267 = CARTESIAN_POINT ( 'NONE',  ( 26.99999999999999600, 0.0000000000000000000, 0.0000000000000000000 ) ) ;
#268 = AXIS2_PLACEMENT_3D ( 'NONE', #99, #7, #202 ) ;
#269 = EDGE_LOOP ( 'NONE', ( #42 ) ) ;
#270 = DIRECTION ( 'NONE',  ( 0.0000000000000000000, 0.0000000000000000000, -1.000000000000000000 ) ) ;
#271 = DIRECTION ( 'NONE',  ( -0.9659258262890699800, 0.0000000000000000000, -0.2588190451025145200 ) ) ;
#272 = CARTESIAN_POINT ( 'NONE',  ( 49.99999999999998600, 0.0000000000000000000, -1.499999999999998700 ) ) ;
#273 = AXIS2_PLACEMENT_3D ( 'NONE', #241, #3, #270 ) ;
#274 = FACE_BOUND ( 'NONE', #248, .T. ) ;
#275 = CARTESIAN_POINT ( 'NONE',  ( 51.33857789801869100, -1.969219965813635100, -0.03153911015672073600 ) ) ;
#276 = SURFACE_STYLE_USAGE ( .BOTH. , #127 ) ;
#277 = APPLICATION_PROTOCOL_DEFINITION ( 'draft international standard', 'automotive_design', 1998, #6 ) ;
#278 = CIRCLE ( 'NONE', #98, 4.000000000000000000 ) ;
#279 = EDGE_LOOP ( 'NONE', ( #31 ) ) ;
#280 = EDGE_LOOP ( 'NONE', ( #142, #118, #69, #80 ) ) ;
#281 = PRESENTATION_STYLE_ASSIGNMENT (( #175 ) ) ;
#282 = VERTEX_POINT ( 'NONE', #49 ) ;
#283 = CARTESIAN_POINT ( 'NONE',  ( 50.80073855284658900, -1.748920521900559000, -1.503370540697909700 ) ) ;
#284 = EDGE_LOOP ( 'NONE', ( #210, #58, #172 ) ) ;
#285 = CARTESIAN_POINT ( 'NONE',  ( 50.17268186721595000, 1.265519065179909100, 1.093766942533569400 ) ) ;
#286 = FACE_OUTER_BOUND ( 'NONE', #106, .T. ) ;
#287 = CARTESIAN_POINT ( 'NONE',  ( 50.17410660717332100, -1.280470853282454500, 1.089814886634671300 ) ) ;
#288 = CARTESIAN_POINT ( 'NONE',  ( 50.17268186721595000, 1.265519065179909100, 1.093766942533569400 ) ) ;
#289 = DIRECTION ( 'NONE',  ( 0.7071067811865487900, -0.0000000000000000000, 0.7071067811865463500 ) ) ;
#290 = PLANE ( 'NONE',  #273 ) ;
#291 = VECTOR ( 'NONE', #320, 999.9999999999998900 ) ;
#292 = DIRECTION ( 'NONE',  ( -1.000000000000000000, -0.0000000000000000000, -0.0000000000000000000 ) ) ;
#293 = CARTESIAN_POINT ( 'NONE',  ( 0.0000000000000000000, 0.0000000000000000000, 4.000000000000000000 ) ) ;
#294 = ORIENTED_EDGE ( 'NONE', *, *, #147, .F. ) ;
#295 =( NAMED_UNIT ( * ) SI_UNIT ( $, .STERADIAN. ) SOLID_ANGLE_UNIT ( ) );
#296 = EDGE_CURVE ( 'NONE', #154, #37, #174, .T. ) ;
#297 = EDGE_LOOP ( 'NONE', ( #182 ) ) ;
#298 = B_SPLINE_CURVE_WITH_KNOTS ( 'NONE', 3,
 ( #285, #132, #111, #238, #314, #209, #187, #259, #17, #88, #14, #40, #287, #211, #134, #162, #60, #262, #36, #15, #208, #59, #79, #312, #283, #189, #38, #233, #247, #67, #264, #319, #216, #116 ),
 .UNSPECIFIED., .F., .F.,
 ( 4, 2, 2, 2, 2, 2, 2, 2, 2, 2, 2, 2, 2, 2, 2, 2, 4 ),
 ( 0.0003315138209285102000, 0.0008172637769485768000, 0.001303013732968643500, 0.001788763688988710300, 0.002274513645008777000, 0.002760263601028844100, 0.003246013557048910800, 0.003731763513068976500, 0.004217513469089041900, 0.004703263425109108600, 0.005189013381129175200, 0.005674763337149241000, 0.006160513293169307700, 0.006646263249189374300, 0.007132013205209440100, 0.007617763161229505900, 0.008103513117249570900 ),
 .UNSPECIFIED. ) ;
#299 = AXIS2_PLACEMENT_3D ( 'NONE', #130, #81, #235 ) ;
#300 = VERTEX_POINT ( 'NONE', #143 ) ;
#301 = CARTESIAN_POINT ( 'NONE',  ( 0.0000000000000000000, 0.0000000000000000000, 0.0000000000000000000 ) ) ;
#302 = SHAPE_DEFINITION_REPRESENTATION ( #27, #221 ) ;
#303 = APPLICATION_CONTEXT ( 'automotive_design' ) ;
#304 = DIRECTION ( 'NONE',  ( 0.0000000000000000000, 0.0000000000000000000, 1.000000000000000000 ) ) ;
#305 = FACE_OUTER_BOUND ( 'NONE', #104, .T. ) ;
#306 =( GEOMETRIC_REPRESENTATION_CONTEXT ( 3 ) GLOBAL_UNCERTAINTY_ASSIGNED_CONTEXT ( ( #184 ) ) GLOBAL_UNIT_ASSIGNED_CONTEXT ( ( #176, #122, #295 ) ) REPRESENTATION_CONTEXT ( 'NONE', 'WORKASPACE' ) );
#307 = ADVANCED_FACE ( 'NONE', ( #164 ), #45, .F. ) ;
#308 = ORIENTED_EDGE ( 'NONE', *, *, #160, .T. ) ;
#309 =( GEOMETRIC_REPRESENTATION_CONTEXT ( 3 ) GLOBAL_UNCERTAINTY_ASSIGNED_CONTEXT ( ( #51 ) ) GLOBAL_UNIT_ASSIGNED_CONTEXT ( ( #93, #214, #266 ) ) REPRESENTATION_CONTEXT ( 'NONE', 'WORKASPACE' ) );
#310 = ORIENTED_EDGE ( 'NONE', *, *, #48, .F. ) ;
#311 = CARTESIAN_POINT ( 'NONE',  ( 50.17268186721595000, 1.265519065179909100, 1.093766942533569400 ) ) ;
#312 = CARTESIAN_POINT ( 'NONE',  ( 50.77123737396726700, -1.823703342943657300, -1.362687333591401400 ) ) ;
#313 = FACE_BOUND ( 'NONE', #279, .T. ) ;
#314 = CARTESIAN_POINT ( 'NONE',  ( 50.06164506058470900, 0.5576463233383588400, 1.467733189899392400 ) ) ;
#315 = EDGE_LOOP ( 'NONE', ( #35, #217, #114, #186, #161 ) ) ;
#316 = CARTESIAN_POINT ( 'NONE',  ( 50.97107686584296700, 0.8750769550951371700, 1.339993413757128800 ) ) ;
#317 = EDGE_CURVE ( 'NONE', #250, #16, #203, .T. ) ;
#318 = CARTESIAN_POINT ( 'NONE',  ( 50.70714432938065400, 1.014359091414714500, 1.273035563474264500 ) ) ;
#319 = CARTESIAN_POINT ( 'NONE',  ( 50.99627574729950700, -0.3236961160664487700, -2.480570230322865800 ) ) ;
#320 = DIRECTION ( 'NONE',  ( 0.2588190451025145200, 0.0000000000000000000, -0.9659258262890699800 ) ) ;
#321 = DIRECTION ( 'NONE',  ( 0.0000000000000000000, 0.0000000000000000000, -1.000000000000000000 ) ) ;
ENDSEC;
END-ISO-10303-21;
