ISO-10303-21;
HEADER;
FILE_DESCRIPTION (( 'STEP AP214' ),
    '1' );
FILE_NAME ('U10.B04.002.023.STEP',
    '2020-10-01T11:35:40',
    ( '' ),
    ( '' ),
    'SwSTEP 2.0',
    'SolidWorks 2017',
    '' );
FILE_SCHEMA (( 'AUTOMOTIVE_DESIGN' ));
ENDSEC;

DATA;
#1 = CARTESIAN_POINT ( 'NONE',  ( 49.98865415743090100, -0.5260245953471586200, -1.935538824175716500 ) ) ;
#2 = CARTESIAN_POINT ( 'NONE',  ( 49.38268807491034800, 1.010763888938546900, 0.9434949249026988200 ) ) ;
#3 = VERTEX_POINT ( 'NONE', #240 ) ;
#4 = VECTOR ( 'NONE', #35, 1000.000000000000100 ) ;
#5 = FILL_AREA_STYLE ('',( #118 ) ) ;
#6 = AXIS2_PLACEMENT_3D ( 'NONE', #259, #70, #163 ) ;
#7 = CARTESIAN_POINT ( 'NONE',  ( 26.12361162513368700, 0.0000000000000000000, 5.000000000000000000 ) ) ;
#8 = AXIS2_PLACEMENT_3D ( 'NONE', #224, #80, #155 ) ;
#9 = APPLICATION_CONTEXT ( 'automotive_design' ) ;
#10 = CIRCLE ( 'NONE', #185, 5.000000000000000000 ) ;
#11 = EDGE_LOOP ( 'NONE', ( #216 ) ) ;
#12 = EDGE_LOOP ( 'NONE', ( #194 ) ) ;
#13 = EDGE_CURVE ( 'NONE', #52, #242, #204, .T. ) ;
#14 = LINE ( 'NONE', #16, #66 ) ;
#15 = CARTESIAN_POINT ( 'NONE',  ( 1.000000000000000900, 0.0000000000000000000, 0.0000000000000000000 ) ) ;
#16 = CARTESIAN_POINT ( 'NONE',  ( 52.48148772003939700, -7.171368088774517700, -7.528987441976623200 ) ) ;
#17 = ORIENTED_EDGE ( 'NONE', *, *, #59, .T. ) ;
#18 = CONICAL_SURFACE ( 'NONE', #94, 2.000000000000000000, 0.7853981633974479500 ) ;
#19 =( NAMED_UNIT ( * ) PLANE_ANGLE_UNIT ( ) SI_UNIT ( $, .RADIAN. ) );
#20 =( NAMED_UNIT ( * ) SI_UNIT ( $, .STERADIAN. ) SOLID_ANGLE_UNIT ( ) );
#21 = SURFACE_SIDE_STYLE ('',( #271 ) ) ;
#22 = ORIENTED_EDGE ( 'NONE', *, *, #290, .T. ) ;
#23 = CARTESIAN_POINT ( 'NONE',  ( 20.29521521044925700, 3.025143332682994400, -25.29521521044933900 ) ) ;
#24 =( BOUNDED_CURVE ( )  B_SPLINE_CURVE ( 3, ( #158, #284, #157, #287 ),
 .UNSPECIFIED., .F., .T. ) 
 B_SPLINE_CURVE_WITH_KNOTS ( ( 4, 4 ),
 ( 4.962864594847002500, 7.272184651559681100 ),
 .UNSPECIFIED. ) 
 CURVE ( )  GEOMETRIC_REPRESENTATION_ITEM ( )  RATIONAL_B_SPLINE_CURVE ( ( 1.000000000000000000, 0.6028196767425031400, 0.6028196767425031400, 1.000000000000000000 ) ) 
 REPRESENTATION_ITEM ( '' )  );
#25 = EDGE_CURVE ( 'NONE', #71, #53, #239, .T. ) ;
#26 = CARTESIAN_POINT ( 'NONE',  ( 27.99999999999999600, 0.0000000000000000000, 1.750000000000000000 ) ) ;
#27 = ORIENTED_EDGE ( 'NONE', *, *, #25, .F. ) ;
#28 = ORIENTED_EDGE ( 'NONE', *, *, #59, .F. ) ;
#29 = LINE ( 'NONE', #237, #165 ) ;
#30 = CARTESIAN_POINT ( 'NONE',  ( 49.38268807491034800, 1.010763888938546900, 0.9434949249026988200 ) ) ;
#31 = CONICAL_SURFACE ( 'NONE', #77, 1.750000000000000000, 1.047197551196591400 ) ;
#32 = FACE_OUTER_BOUND ( 'NONE', #12, .T. ) ;
#33 = ORIENTED_EDGE ( 'NONE', *, *, #273, .T. ) ;
#34 = AXIS2_PLACEMENT_3D ( 'NONE', #304, #126, #243 ) ;
#35 = DIRECTION ( 'NONE',  ( 0.9997232982791521800, 0.0000000000000000000, 0.02352290113598005900 ) ) ;
#36 =( GEOMETRIC_REPRESENTATION_CONTEXT ( 3 ) GLOBAL_UNCERTAINTY_ASSIGNED_CONTEXT ( ( #279 ) ) GLOBAL_UNIT_ASSIGNED_CONTEXT ( ( #191, #93, #146 ) ) REPRESENTATION_CONTEXT ( 'NONE', 'WORKASPACE' ) );
#37 = ADVANCED_FACE ( 'NONE', ( #176 ), #222, .F. ) ;
#38 = VECTOR ( 'NONE', #212, 1000.000000000000000 ) ;
#39 = DIRECTION ( 'NONE',  ( 1.000000000000000000, -0.0000000000000000000, -0.0000000000000000000 ) ) ;
#40 = DIRECTION ( 'NONE',  ( -1.000000000000000000, -0.0000000000000000000, -0.0000000000000000000 ) ) ;
#41 = CONICAL_SURFACE ( 'NONE', #262, 1.250000000000000000, 0.02352507098521692100 ) ;
#42 = CARTESIAN_POINT ( 'NONE',  ( 49.95594883692059100, -0.8749986077394508200, -1.754189286633196500 ) ) ;
#43 = CARTESIAN_POINT ( 'NONE',  ( 49.64126809282530700, 0.8928415566981802200, 1.035307581256657400 ) ) ;
#44 = PRESENTATION_STYLE_ASSIGNMENT (( #211 ) ) ;
#45 = ORIENTED_EDGE ( 'NONE', *, *, #255, .T. ) ;
#46 = ADVANCED_FACE ( 'NONE', ( #74, #140 ), #200, .T. ) ;
#47 = EDGE_CURVE ( 'NONE', #313, #277, #95, .T. ) ;
#48 = VERTEX_POINT ( 'NONE', #154 ) ;
#49 = AXIS2_PLACEMENT_3D ( 'NONE', #177, #131, #253 ) ;
#50 = EDGE_CURVE ( 'NONE', #282, #282, #288, .T. ) ;
#51 = CARTESIAN_POINT ( 'NONE',  ( 49.24999999999998600, 0.9832248137880861300, 0.7718607164193440600 ) ) ;
#52 = VERTEX_POINT ( 'NONE', #30 ) ;
#53 = VERTEX_POINT ( 'NONE', #54 ) ;
#54 = CARTESIAN_POINT ( 'NONE',  ( 51.00000000000000000, 0.0000000000000000000, -2.000000000000052800 ) ) ;
#55 = ORIENTED_EDGE ( 'NONE', *, *, #238, .F. ) ;
#56 = ADVANCED_FACE ( 'NONE', ( #168 ), #197, .F. ) ;
#57 = DIRECTION ( 'NONE',  ( -1.000000000000000000, -0.0000000000000000000, -0.0000000000000000000 ) ) ;
#58 = UNCERTAINTY_MEASURE_WITH_UNIT (LENGTH_MEASURE( 1.000000000000000100E-005 ), #142, 'distance_accuracy_value', 'NONE');
#59 = EDGE_CURVE ( 'NONE', #260, #53, #151, .T. ) ;
#60 = CARTESIAN_POINT ( 'NONE',  ( 50.76815863446132900, -1.831073105596102700, -1.134756244513567000 ) ) ;
#61 = ORIENTED_EDGE ( 'NONE', *, *, #182, .T. ) ;
#62 = CARTESIAN_POINT ( 'NONE',  ( 49.24999999999998600, 0.9832248137880861300, 0.7718607164193440600 ) ) ;
#63 = DIRECTION ( 'NONE',  ( 1.000000000000000000, 0.0000000000000000000, 0.0000000000000000000 ) ) ;
#64 = CARTESIAN_POINT ( 'NONE',  ( 50.00000000000003600, -1.114581572986767600E-023, -2.000000000000049700 ) ) ;
#65 = CARTESIAN_POINT ( 'NONE',  ( 49.28505051361315000, 0.04373469410146692300, 1.310902019714647500 ) ) ;
#66 = VECTOR ( 'NONE', #251, 1000.000000000000000 ) ;
#67 = ORIENTED_EDGE ( 'NONE', *, *, #273, .F. ) ;
#68 = PRODUCT ( 'U10.B04.002.023', 'U10.B04.002.023', '', ( #97 ) ) ;
#69 = CARTESIAN_POINT ( 'NONE',  ( 49.75755549446005700, -1.610508272876263600, -0.7148978873867738400 ) ) ;
#70 = DIRECTION ( 'NONE',  ( -1.000000000000000000, -0.0000000000000000000, -0.0000000000000000000 ) ) ;
#71 = VERTEX_POINT ( 'NONE', #249 ) ;
#72 = DIRECTION ( 'NONE',  ( 1.000000000000000000, 0.0000000000000000000, 0.0000000000000000000 ) ) ;
#73 = SURFACE_SIDE_STYLE ('',( #171 ) ) ;
#74 = FACE_OUTER_BOUND ( 'NONE', #221, .T. ) ;
#75 = APPLICATION_CONTEXT ( 'automotive_design' ) ;
#76 = ORIENTED_EDGE ( 'NONE', *, *, #189, .T. ) ;
#77 = AXIS2_PLACEMENT_3D ( 'NONE', #113, #137, #164 ) ;
#78 = DIRECTION ( 'NONE',  ( 1.000000000000000000, 0.0000000000000000000, 0.0000000000000000000 ) ) ;
#79 = ORIENTED_EDGE ( 'NONE', *, *, #219, .F. ) ;
#80 = DIRECTION ( 'NONE',  ( -1.000000000000000000, -0.0000000000000000000, -0.0000000000000000000 ) ) ;
#81 =( GEOMETRIC_REPRESENTATION_CONTEXT ( 3 ) GLOBAL_UNCERTAINTY_ASSIGNED_CONTEXT ( ( #220 ) ) GLOBAL_UNIT_ASSIGNED_CONTEXT ( ( #166, #19, #20 ) ) REPRESENTATION_CONTEXT ( 'NONE', 'WORKASPACE' ) );
#82 = ADVANCED_FACE ( 'NONE', ( #98, #275 ), #115, .T. ) ;
#83 = DIRECTION ( 'NONE',  ( -1.000000000000000000, -0.0000000000000000000, -0.0000000000000000000 ) ) ;
#84 = EDGE_LOOP ( 'NONE', ( #195 ) ) ;
#85 = CARTESIAN_POINT ( 'NONE',  ( 48.99999999999999300, 0.0000000000000000000, -0.3547099181035394100 ) ) ;
#86 = CARTESIAN_POINT ( 'NONE',  ( 50.17933921485786200, -1.397181004757873900, 1.062747745929822000 ) ) ;
#87 = EDGE_LOOP ( 'NONE', ( #76 ) ) ;
#88 = MECHANICAL_DESIGN_GEOMETRIC_PRESENTATION_REPRESENTATION (  '', ( #198 ), #81 ) ;
#89 = CARTESIAN_POINT ( 'NONE',  ( 50.00000000000001400, -0.2626865530160157900, -2.000000000000050200 ) ) ;
#90 = CARTESIAN_POINT ( 'NONE',  ( 49.70546916819000700, -1.646891399024946100, -0.4606390927294286000 ) ) ;
#91 = VERTEX_POINT ( 'NONE', #26 ) ;
#92 = CARTESIAN_POINT ( 'NONE',  ( 49.24999999999998600, 0.0000000000000000000, 0.0000000000000000000 ) ) ;
#93 =( NAMED_UNIT ( * ) PLANE_ANGLE_UNIT ( ) SI_UNIT ( $, .RADIAN. ) );
#94 = AXIS2_PLACEMENT_3D ( 'NONE', #205, #226, #101 ) ;
#95 = LINE ( 'NONE', #128, #4 ) ;
#96 =( NAMED_UNIT ( * ) PLANE_ANGLE_UNIT ( ) SI_UNIT ( $, .RADIAN. ) );
#97 = PRODUCT_CONTEXT ( 'NONE', #9, 'mechanical' ) ;
#98 = FACE_OUTER_BOUND ( 'NONE', #305, .T. ) ;
#99 = DIRECTION ( 'NONE',  ( 0.0000000000000000000, 0.0000000000000000000, -1.000000000000000000 ) ) ;
#100 = LINE ( 'NONE', #109, #38 ) ;
#101 = DIRECTION ( 'NONE',  ( 0.0000000000000000000, 0.0000000000000000000, -1.000000000000000000 ) ) ;
#102 = DIRECTION ( 'NONE',  ( 0.0000000000000000000, 0.0000000000000000000, -1.000000000000000000 ) ) ;
#103 = CARTESIAN_POINT ( 'NONE',  ( 51.00000000000000000, 0.0000000000000000000, -2.000000000000052800 ) ) ;
#104 = EDGE_LOOP ( 'NONE', ( #17, #27, #116 ) ) ;
#105 = ADVANCED_BREP_SHAPE_REPRESENTATION ( 'U10.B04.002.023', ( #232, #119 ), #247 ) ;
#106 = AXIS2_PLACEMENT_3D ( 'NONE', #281, #306, #257 ) ;
#107 = CARTESIAN_POINT ( 'NONE',  ( 50.03731685239376500, -0.4105783584431005900, 1.592782418456813800 ) ) ;
#108 = CARTESIAN_POINT ( 'NONE',  ( 49.38268807491034800, 1.010763888938546900, 0.9434949249026988200 ) ) ;
#109 = CARTESIAN_POINT ( 'NONE',  ( 22.43431457505066700, 0.0000000000000000000, -27.43431457505075200 ) ) ;
#110 = ORIENTED_EDGE ( 'NONE', *, *, #50, .F. ) ;
#111 = CARTESIAN_POINT ( 'NONE',  ( 49.94228110973698900, -0.9850990112471667000, -1.678902769523351400 ) ) ;
#112 = CARTESIAN_POINT ( 'NONE',  ( 50.15137581925856800, 0.6253382893723021800, 1.167108559058553000 ) ) ;
#113 = CARTESIAN_POINT ( 'NONE',  ( 27.99999999999999600, 0.0000000000000000000, 0.0000000000000000000 ) ) ;
#114 = DIRECTION ( 'NONE',  ( 0.7071067811865479100, 0.0000000000000000000, -0.7071067811865472400 ) ) ;
#115 = TOROIDAL_SURFACE ( 'NONE', #206, 4.000000000000000000, 1.000000000000000400 ) ;
#116 = ORIENTED_EDGE ( 'NONE', *, *, #182, .F. ) ;
#117 = DIRECTION ( 'NONE',  ( 0.0000000000000000000, 0.0000000000000000000, 1.000000000000000000 ) ) ;
#118 = FILL_AREA_STYLE_COLOUR ( '', #122 ) ;
#119 = AXIS2_PLACEMENT_3D ( 'NONE', #147, #117, #72 ) ;
#120 = VECTOR ( 'NONE', #63, 1000.000000000000000 ) ;
#121 = EDGE_CURVE ( 'NONE', #3, #3, #309, .T. ) ;
#122 = COLOUR_RGB ( '',1.000000000000000000, 1.000000000000000000, 0.5019607843137254800 ) ;
#123 = EDGE_LOOP ( 'NONE', ( #28, #283, #267, #136 ) ) ;
#124 = CARTESIAN_POINT ( 'NONE',  ( 49.29351744763501800, 0.9932534402308294000, 0.8295607835816761800 ) ) ;
#125 = PRODUCT_DEFINITION_FORMATION_WITH_SPECIFIED_SOURCE ( 'ANY', '', #68, .NOT_KNOWN. ) ;
#126 = DIRECTION ( 'NONE',  ( -1.000000000000000000, -0.0000000000000000000, -0.0000000000000000000 ) ) ;
#127 = EDGE_LOOP ( 'NONE', ( #196 ) ) ;
#128 = CARTESIAN_POINT ( 'NONE',  ( 102.3749999999999700, 0.0000000000000000000, 0.0000000000000000000 ) ) ;
#129 = ADVANCED_FACE ( 'NONE', ( #180 ), #18, .T. ) ;
#130 = ORIENTED_EDGE ( 'NONE', *, *, #203, .F. ) ;
#131 = DIRECTION ( 'NONE',  ( -1.000000000000000000, -0.0000000000000000000, -0.0000000000000000000 ) ) ;
#132 = CARTESIAN_POINT ( 'NONE',  ( -79.66162912480135100, 0.0000000000000000000, -2.000000000000000000 ) ) ;
#133 = EDGE_CURVE ( 'NONE', #242, #313, #24, .T. ) ;
#134 = ADVANCED_FACE ( 'NONE', ( #32, #209 ), #41, .T. ) ;
#135 = CARTESIAN_POINT ( 'NONE',  ( 49.59530443085808600, -1.599441573490837200, 0.05205718189953210300 ) ) ;
#136 = ORIENTED_EDGE ( 'NONE', *, *, #203, .T. ) ;
#137 = DIRECTION ( 'NONE',  ( -1.000000000000000000, -0.0000000000000000000, -0.0000000000000000000 ) ) ;
#138 = CARTESIAN_POINT ( 'NONE',  ( 49.33080472160247600, -0.7308148170566772800, 1.142551286203318700 ) ) ;
#139 = CARTESIAN_POINT ( 'NONE',  ( 49.89908050277013300, 0.7635725480412759400, 1.110306005964372600 ) ) ;
#140 = FACE_OUTER_BOUND ( 'NONE', #87, .T. ) ;
#141 = CARTESIAN_POINT ( 'NONE',  ( 49.36752169890920100, -0.9616554593651236400, 1.005190961915116900 ) ) ;
#142 =( LENGTH_UNIT ( ) NAMED_UNIT ( * ) SI_UNIT ( .MILLI., .METRE. ) );
#143 = CARTESIAN_POINT ( 'NONE',  ( 48.60341539468228000, 0.0000000000000000000, -1.265213755419231800 ) ) ;
#144 = COLOUR_RGB ( '',1.000000000000000000, 1.000000000000000000, 0.5019607843137254800 ) ;
#145 = LINE ( 'NONE', #132, #120 ) ;
#146 =( NAMED_UNIT ( * ) SI_UNIT ( $, .STERADIAN. ) SOLID_ANGLE_UNIT ( ) );
#147 = CARTESIAN_POINT ( 'NONE',  ( 0.0000000000000000000, 0.0000000000000000000, 0.0000000000000000000 ) ) ;
#148 = AXIS2_PLACEMENT_3D ( 'NONE', #85, #39, #102 ) ;
#149 = PRESENTATION_STYLE_ASSIGNMENT (( #192 ) ) ;
#150 = ORIENTED_EDGE ( 'NONE', *, *, #121, .F. ) ;
#151 =( BOUNDED_CURVE ( )  B_SPLINE_CURVE ( 3, ( #199, #107, #86, #310, #60, #161, #103 ),
 .UNSPECIFIED., .F., .T. ) 
 B_SPLINE_CURVE_WITH_KNOTS ( ( 4, 3, 4 ),
 ( 2.751712210392521600, 4.517448758786054300, 6.283185307179586200 ),
 .UNSPECIFIED. ) 
 CURVE ( )  GEOMETRIC_REPRESENTATION_ITEM ( )  RATIONAL_B_SPLINE_CURVE ( ( 1.000000000000000000, 0.7566252239150502700, 0.7566252239150502700, 1.000000000000000000, 0.7566252239150503800, 0.7566252239150503800, 1.000000000000000000 ) ) 
 REPRESENTATION_ITEM ( '' )  );
#152 = ORIENTED_EDGE ( 'NONE', *, *, #13, .T. ) ;
#153 = ORIENTED_EDGE ( 'NONE', *, *, #255, .F. ) ;
#154 = CARTESIAN_POINT ( 'NONE',  ( 50.00000000000003600, -1.114581572986767600E-023, -2.000000000000049700 ) ) ;
#155 = DIRECTION ( 'NONE',  ( 0.0000000000000000000, 0.0000000000000000000, 1.000000000000000000 ) ) ;
#156 = FACE_OUTER_BOUND ( 'NONE', #11, .T. ) ;
#157 = CARTESIAN_POINT ( 'NONE',  ( 46.79199303554775500, 1.250730938825494100, -1.307835457987111200 ) ) ;
#158 = CARTESIAN_POINT ( 'NONE',  ( 49.24999999999998600, 0.9832248137880861300, 0.7718607164193440600 ) ) ;
#159 = CARTESIAN_POINT ( 'NONE',  ( 22.43431457505066700, 0.0000000000000000000, -27.43431457505075200 ) ) ;
#160 = ORIENTED_EDGE ( 'NONE', *, *, #290, .F. ) ;
#161 = CARTESIAN_POINT ( 'NONE',  ( 51.00000000000000000, -1.119964970789759900, -2.000000000000049700 ) ) ;
#162 = CARTESIAN_POINT ( 'NONE',  ( 49.62293125531914500, -1.626155751416819200, -0.07327843015885988900 ) ) ;
#163 = DIRECTION ( 'NONE',  ( 0.0000000000000000000, 0.0000000000000000000, 1.000000000000000000 ) ) ;
#164 = DIRECTION ( 'NONE',  ( 0.0000000000000000000, 0.0000000000000000000, 1.000000000000000000 ) ) ;
#165 = VECTOR ( 'NONE', #114, 999.9999999999998900 ) ;
#166 =( LENGTH_UNIT ( ) NAMED_UNIT ( * ) SI_UNIT ( .MILLI., .METRE. ) );
#167 = APPLICATION_PROTOCOL_DEFINITION ( 'draft international standard', 'automotive_design', 1998, #9 ) ;
#168 = FACE_OUTER_BOUND ( 'NONE', #217, .T. ) ;
#169 = ORIENTED_EDGE ( 'NONE', *, *, #133, .T. ) ;
#170 = DIRECTION ( 'NONE',  ( -0.4999999999999998900, -0.7071067811865465700, 0.5000000000000015500 ) ) ;
#171 = SURFACE_STYLE_FILL_AREA ( #5 ) ;
#172 = EDGE_LOOP ( 'NONE', ( #79, #61, #153, #269, #301 ) ) ;
#173 = DIRECTION ( 'NONE',  ( 0.2588190451025148000, 0.0000000000000000000, -0.9659258262890698700 ) ) ;
#174 = PRESENTATION_LAYER_ASSIGNMENT (  '', '', ( #234 ) ) ;
#175 = CARTESIAN_POINT ( 'NONE',  ( 49.33780914706559900, 1.002358791795136200, 0.8867293946846662700 ) ) ;
#176 = FACE_OUTER_BOUND ( 'NONE', #127, .T. ) ;
#177 = CARTESIAN_POINT ( 'NONE',  ( 0.0000000000000000000, 0.0000000000000000000, 0.0000000000000000000 ) ) ;
#178 = ADVANCED_FACE ( 'NONE', ( #297 ), #179, .F. ) ;
#179 = PLANE ( 'NONE',  #106 ) ;
#180 = FACE_OUTER_BOUND ( 'NONE', #272, .T. ) ;
#181 = DIRECTION ( 'NONE',  ( 0.0000000000000000000, 0.0000000000000000000, 1.000000000000000000 ) ) ;
#182 = EDGE_CURVE ( 'NONE', #260, #71, #14, .T. ) ;
#183 = PLANE ( 'NONE',  #276 ) ;
#184 = CARTESIAN_POINT ( 'NONE',  ( 49.91074358337185400, -1.180981118720561900, -1.507615103683433300 ) ) ;
#185 = AXIS2_PLACEMENT_3D ( 'NONE', #227, #83, #286 ) ;
#186 = CARTESIAN_POINT ( 'NONE',  ( 49.31146195514556800, 0.5608817132171373100, 1.214234808344532200 ) ) ;
#187 = CARTESIAN_POINT ( 'NONE',  ( 49.51261177347296900, -1.460240030267462100, 0.4141969886310656300 ) ) ;
#188 =( NAMED_UNIT ( * ) SI_UNIT ( $, .STERADIAN. ) SOLID_ANGLE_UNIT ( ) );
#189 = EDGE_CURVE ( 'NONE', #213, #213, #10, .T. ) ;
#190 = ORIENTED_EDGE ( 'NONE', *, *, #50, .T. ) ;
#191 =( LENGTH_UNIT ( ) NAMED_UNIT ( * ) SI_UNIT ( .MILLI., .METRE. ) );
#192 = SURFACE_STYLE_USAGE ( .BOTH. , #73 ) ;
#193 = MECHANICAL_DESIGN_GEOMETRIC_PRESENTATION_REPRESENTATION (  '', ( #234 ), #36 ) ;
#194 = ORIENTED_EDGE ( 'NONE', *, *, #231, .F. ) ;
#195 = ORIENTED_EDGE ( 'NONE', *, *, #231, .T. ) ;
#196 = ORIENTED_EDGE ( 'NONE', *, *, #121, .T. ) ;
#197 = PLANE ( 'NONE',  #270 ) ;
#198 = STYLED_ITEM ( 'NONE', ( #44 ), #232 ) ;
#199 = CARTESIAN_POINT ( 'NONE',  ( 50.15137581925856800, 0.6253382893723021800, 1.167108559058553000 ) ) ;
#200 = CYLINDRICAL_SURFACE ( 'NONE', #34, 5.000000000000000900 ) ;
#201 = DIRECTION ( 'NONE',  ( 0.0000000000000000000, -1.000000000000000000, 0.0000000000000000000 ) ) ;
#202 = ADVANCED_FACE ( 'NONE', ( #245 ), #266, .T. ) ;
#203 = EDGE_CURVE ( 'NONE', #48, #53, #145, .T. ) ;
#204 = B_SPLINE_CURVE_WITH_KNOTS ( 'NONE', 3,
 ( #274, #175, #124, #51 ),
 .UNSPECIFIED., .F., .F.,
 ( 4, 4 ),
 ( 0.0009613137428392874700, 0.001179742893569361600 ),
 .UNSPECIFIED. ) ;
#205 = CARTESIAN_POINT ( 'NONE',  ( 49.99999999999998600, 0.0000000000000000000, 0.0000000000000000000 ) ) ;
#206 = AXIS2_PLACEMENT_3D ( 'NONE', #15, #57, #181 ) ;
#207 = FACE_BOUND ( 'NONE', #84, .T. ) ;
#208 = CARTESIAN_POINT ( 'NONE',  ( 49.85210090965269100, -1.419736298363966500, -1.196343104271998300 ) ) ;
#209 = FACE_BOUND ( 'NONE', #241, .T. ) ;
#210 = FILL_AREA_STYLE ('',( #256 ) ) ;
#211 = SURFACE_STYLE_USAGE ( .BOTH. , #21 ) ;
#212 = DIRECTION ( 'NONE',  ( 0.7071067811865487900, -0.0000000000000000000, 0.7071067811865463500 ) ) ;
#213 = VERTEX_POINT ( 'NONE', #7 ) ;
#214 = CARTESIAN_POINT ( 'NONE',  ( 49.78291064337555100, -1.576939737656851000, -0.8416029844161310200 ) ) ;
#215 = DIRECTION ( 'NONE',  ( 0.0000000000000000000, -0.5773502691896275100, -0.8164965809277248100 ) ) ;
#216 = ORIENTED_EDGE ( 'NONE', *, *, #189, .F. ) ;
#217 = EDGE_LOOP ( 'NONE', ( #45, #261, #130, #160, #254 ) ) ;
#218 = PRODUCT_DEFINITION ( 'UNKNOWN', '', #125, #250 ) ;
#219 = EDGE_CURVE ( 'NONE', #260, #52, #298, .T. ) ;
#220 = UNCERTAINTY_MEASURE_WITH_UNIT (LENGTH_MEASURE( 1.000000000000000100E-005 ), #166, 'distance_accuracy_value', 'NONE');
#221 = EDGE_LOOP ( 'NONE', ( #110 ) ) ;
#222 = PLANE ( 'NONE',  #303 ) ;
#223 = PRODUCT_RELATED_PRODUCT_CATEGORY ( 'part', '', ( #68 ) ) ;
#224 = CARTESIAN_POINT ( 'NONE',  ( 1.000000000000000900, 0.0000000000000000000, 0.0000000000000000000 ) ) ;
#225 = CIRCLE ( 'NONE', #258, 1.250000000000000000 ) ;
#226 = DIRECTION ( 'NONE',  ( 1.000000000000000000, 0.0000000000000000000, 0.0000000000000000000 ) ) ;
#227 = CARTESIAN_POINT ( 'NONE',  ( 26.12361162513368700, 0.0000000000000000000, 0.0000000000000000000 ) ) ;
#228 = DIRECTION ( 'NONE',  ( 0.0000000000000000000, 0.0000000000000000000, 1.000000000000000000 ) ) ;
#229 = VECTOR ( 'NONE', #173, 1000.000000000000100 ) ;
#230 = CARTESIAN_POINT ( 'NONE',  ( 49.24999999999998600, 0.0000000000000000000, 0.0000000000000000000 ) ) ;
#231 = EDGE_CURVE ( 'NONE', #91, #91, #299, .T. ) ;
#232 = MANIFOLD_SOLID_BREP ( 'Schnitt-Linear austragen3', #289 ) ;
#233 = CARTESIAN_POINT ( 'NONE',  ( 49.46070379739597200, -1.323030238144818700, 0.6317533433381435900 ) ) ;
#234 = STYLED_ITEM ( 'NONE', ( #149 ), #105 ) ;
#235 = CARTESIAN_POINT ( 'NONE',  ( 49.83024702769108000, -1.481163352464727000, -1.082692690935414900 ) ) ;
#236 = CARTESIAN_POINT ( 'NONE',  ( 50.15137581925856800, 0.6253382893723021800, 1.167108559058553000 ) ) ;
#237 = CARTESIAN_POINT ( 'NONE',  ( 47.99999999999998600, 0.0000000000000000000, 0.0000000000000000000 ) ) ;
#238 = EDGE_CURVE ( 'NONE', #52, #48, #244, .T. ) ;
#239 = LINE ( 'NONE', #302, #229 ) ;
#240 = CARTESIAN_POINT ( 'NONE',  ( 0.0000000000000000000, 0.0000000000000000000, 4.000000000000000000 ) ) ;
#241 = EDGE_LOOP ( 'NONE', ( #169, #300, #33 ) ) ;
#242 = VERTEX_POINT ( 'NONE', #62 ) ;
#243 = DIRECTION ( 'NONE',  ( 0.0000000000000000000, 0.0000000000000000000, 1.000000000000000000 ) ) ;
#244 = B_SPLINE_CURVE_WITH_KNOTS ( 'NONE', 3,
 ( #108, #264, #186, #65, #312, #138, #141, #311, #233, #187, #291, #135, #162, #292, #90, #69, #214, #235, #208, #263, #184, #111, #42, #1, #89, #64 ),
 .UNSPECIFIED., .F., .F.,
 ( 4, 2, 2, 2, 2, 2, 2, 2, 2, 2, 2, 2, 4 ),
 ( 0.0002128373990198420800, 0.0009993307133702705000, 0.001785824027720699100, 0.002572317342071127200, 0.002965563999246341500, 0.003358810656421555800, 0.003752057313596769700, 0.004145303970771984000, 0.004538550627947198300, 0.004931797285122412600, 0.005325043942297626900, 0.005718290599472841200, 0.006504783913823268000 ),
 .UNSPECIFIED. ) ;
#245 = FACE_OUTER_BOUND ( 'NONE', #123, .T. ) ;
#246 = EDGE_LOOP ( 'NONE', ( #190 ) ) ;
#247 =( GEOMETRIC_REPRESENTATION_CONTEXT ( 3 ) GLOBAL_UNCERTAINTY_ASSIGNED_CONTEXT ( ( #58 ) ) GLOBAL_UNIT_ASSIGNED_CONTEXT ( ( #142, #96, #188 ) ) REPRESENTATION_CONTEXT ( 'NONE', 'WORKASPACE' ) );
#248 = ADVANCED_FACE ( 'NONE', ( #156, #207 ), #31, .T. ) ;
#249 = CARTESIAN_POINT ( 'NONE',  ( 50.33826347661146600, 0.0000000000000000000, 0.4696343265099562300 ) ) ;
#250 = PRODUCT_DEFINITION_CONTEXT ( 'detailed design', #75, 'design' ) ;
#251 = DIRECTION ( 'NONE',  ( 0.1956488079738469300, -0.6546536707079772000, -0.7301712917987013300 ) ) ;
#252 = SHAPE_DEFINITION_REPRESENTATION ( #285, #105 ) ;
#253 = DIRECTION ( 'NONE',  ( 0.0000000000000000000, 0.0000000000000000000, 1.000000000000000000 ) ) ;
#254 = ORIENTED_EDGE ( 'NONE', *, *, #47, .F. ) ;
#255 = EDGE_CURVE ( 'NONE', #313, #71, #100, .T. ) ;
#256 = FILL_AREA_STYLE_COLOUR ( '', #144 ) ;
#257 = DIRECTION ( 'NONE',  ( -0.2588190451025148000, 0.0000000000000000000, 0.9659258262890698700 ) ) ;
#258 = AXIS2_PLACEMENT_3D ( 'NONE', #92, #265, #294 ) ;
#259 = CARTESIAN_POINT ( 'NONE',  ( 27.99999999999999600, 0.0000000000000000000, 0.0000000000000000000 ) ) ;
#260 = VERTEX_POINT ( 'NONE', #112 ) ;
#261 = ORIENTED_EDGE ( 'NONE', *, *, #25, .T. ) ;
#262 = AXIS2_PLACEMENT_3D ( 'NONE', #230, #40, #228 ) ;
#263 = CARTESIAN_POINT ( 'NONE',  ( 49.89249511072699100, -1.269365930293036000, -1.409559533908364000 ) ) ;
#264 = CARTESIAN_POINT ( 'NONE',  ( 49.34184136656911300, 0.8062600538243062100, 1.102718712116627800 ) ) ;
#265 = DIRECTION ( 'NONE',  ( -1.000000000000000000, -0.0000000000000000000, -0.0000000000000000000 ) ) ;
#266 = CYLINDRICAL_SURFACE ( 'NONE', #148, 1.645290081896510600 ) ;
#267 = ORIENTED_EDGE ( 'NONE', *, *, #238, .T. ) ;
#268 = CARTESIAN_POINT ( 'NONE',  ( 1.000000000000000900, 0.0000000000000000000, 5.000000000000000900 ) ) ;
#269 = ORIENTED_EDGE ( 'NONE', *, *, #133, .F. ) ;
#270 = AXIS2_PLACEMENT_3D ( 'NONE', #159, #201, #308 ) ;
#271 = SURFACE_STYLE_FILL_AREA ( #210 ) ;
#272 = EDGE_LOOP ( 'NONE', ( #55, #152, #67, #22 ) ) ;
#273 = EDGE_CURVE ( 'NONE', #277, #242, #225, .T. ) ;
#274 = CARTESIAN_POINT ( 'NONE',  ( 49.38268807491034800, 1.010763888938546900, 0.9434949249026988200 ) ) ;
#275 = FACE_OUTER_BOUND ( 'NONE', #246, .T. ) ;
#276 = AXIS2_PLACEMENT_3D ( 'NONE', #23, #170, #215 ) ;
#277 = VERTEX_POINT ( 'NONE', #293 ) ;
#278 = PRESENTATION_LAYER_ASSIGNMENT (  '', '', ( #198 ) ) ;
#279 = UNCERTAINTY_MEASURE_WITH_UNIT (LENGTH_MEASURE( 1.000000000000000100E-005 ), #191, 'distance_accuracy_value', 'NONE');
#280 = CARTESIAN_POINT ( 'NONE',  ( 0.0000000000000000000, 0.0000000000000000000, 0.0000000000000000000 ) ) ;
#281 = CARTESIAN_POINT ( 'NONE',  ( 49.54619775446902000, -5.000000000000000900, 3.425663844479401200 ) ) ;
#282 = VERTEX_POINT ( 'NONE', #268 ) ;
#283 = ORIENTED_EDGE ( 'NONE', *, *, #219, .T. ) ;
#284 = CARTESIAN_POINT ( 'NONE',  ( 47.14952649055578600, 1.794411938701058600, -0.1814209593504927700 ) ) ;
#285 = PRODUCT_DEFINITION_SHAPE ( 'NONE', 'NONE',  #218 ) ;
#286 = DIRECTION ( 'NONE',  ( 0.0000000000000000000, 0.0000000000000000000, 1.000000000000000000 ) ) ;
#287 = CARTESIAN_POINT ( 'NONE',  ( 48.60341539468228000, 0.0000000000000000000, -1.265213755419231800 ) ) ;
#288 = CIRCLE ( 'NONE', #8, 5.000000000000000900 ) ;
#289 = CLOSED_SHELL ( 'NONE', ( #129, #307, #37, #82, #46, #248, #134, #56, #202, #178 ) ) ;
#290 = EDGE_CURVE ( 'NONE', #277, #48, #29, .T. ) ;
#291 = CARTESIAN_POINT ( 'NONE',  ( 49.53994029134345600, -1.516341260274761200, 0.2967361679573903300 ) ) ;
#292 = CARTESIAN_POINT ( 'NONE',  ( 49.67808050680936600, -1.650142536612416300, -0.3298942147063057600 ) ) ;
#293 = CARTESIAN_POINT ( 'NONE',  ( 49.24999999999998600, 0.0000000000000000000, -1.249999999999998400 ) ) ;
#294 = DIRECTION ( 'NONE',  ( 0.0000000000000000000, 0.0000000000000000000, 1.000000000000000000 ) ) ;
#295 = APPLICATION_PROTOCOL_DEFINITION ( 'draft international standard', 'automotive_design', 1998, #75 ) ;
#296 = FACE_OUTER_BOUND ( 'NONE', #172, .T. ) ;
#297 = FACE_OUTER_BOUND ( 'NONE', #104, .T. ) ;
#298 =( BOUNDED_CURVE ( )  B_SPLINE_CURVE ( 3, ( #236, #139, #43, #2 ),
 .UNSPECIFIED., .F., .T. ) 
 B_SPLINE_CURVE_WITH_KNOTS ( ( 4, 4 ),
 ( 1.345197061321780100, 1.616863065538857200 ),
 .UNSPECIFIED. ) 
 CURVE ( )  GEOMETRIC_REPRESENTATION_ITEM ( )  RATIONAL_B_SPLINE_CURVE ( ( 1.000000000000000000, 0.9938592489434455700, 0.9938592489434455700, 1.000000000000000000 ) ) 
 REPRESENTATION_ITEM ( '' )  );
#299 = CIRCLE ( 'NONE', #6, 1.750000000000000000 ) ;
#300 = ORIENTED_EDGE ( 'NONE', *, *, #47, .T. ) ;
#301 = ORIENTED_EDGE ( 'NONE', *, *, #13, .F. ) ;
#302 = CARTESIAN_POINT ( 'NONE',  ( 55.44504055854845600, 0.0000000000000000000, -18.58911720620765700 ) ) ;
#303 = AXIS2_PLACEMENT_3D ( 'NONE', #280, #78, #99 ) ;
#304 = CARTESIAN_POINT ( 'NONE',  ( -79.66162912480135100, 0.0000000000000000000, 0.0000000000000000000 ) ) ;
#305 = EDGE_LOOP ( 'NONE', ( #150 ) ) ;
#306 = DIRECTION ( 'NONE',  ( -0.9659258262890698700, 0.0000000000000000000, -0.2588190451025148000 ) ) ;
#307 = ADVANCED_FACE ( 'NONE', ( #296 ), #183, .F. ) ;
#308 = DIRECTION ( 'NONE',  ( 0.0000000000000000000, 0.0000000000000000000, -1.000000000000000000 ) ) ;
#309 = CIRCLE ( 'NONE', #49, 4.000000000000000000 ) ;
#310 = CARTESIAN_POINT ( 'NONE',  ( 50.47374892465959600, -1.614127055176988400, -0.03600424929187280600 ) ) ;
#311 = CARTESIAN_POINT ( 'NONE',  ( 49.43556413537664400, -1.240208261139597700, 0.7341637961957504500 ) ) ;
#312 = CARTESIAN_POINT ( 'NONE',  ( 49.28935953997626700, -0.2286431175366852600, 1.295624513323955900 ) ) ;
#313 = VERTEX_POINT ( 'NONE', #143 ) ;
ENDSEC;
END-ISO-10303-21;
