ISO-10303-21;
HEADER;
FILE_DESCRIPTION (( 'STEP AP214' ),
    '1' );
FILE_NAME ('U10.B03.001.020.STEP',
    '2020-10-01T11:35:54',
    ( '' ),
    ( '' ),
    'SwSTEP 2.0',
    'SolidWorks 2017',
    '' );
FILE_SCHEMA (( 'AUTOMOTIVE_DESIGN' ));
ENDSEC;

DATA;
#1 = CARTESIAN_POINT ( 'NONE',  ( 25.99999999999999600, 0.0000000000000000000, 1.500000000000000000 ) ) ;
#2 = FILL_AREA_STYLE ('',( #274 ) ) ;
#3 = LINE ( 'NONE', #43, #304 ) ;
#4 = VERTEX_POINT ( 'NONE', #111 ) ;
#5 = CARTESIAN_POINT ( 'NONE',  ( 46.00000000000000000, 0.0000000000000000000, -1.500000000000000000 ) ) ;
#6 =( BOUNDED_CURVE ( )  B_SPLINE_CURVE ( 3, ( #181, #238, #63, #59 ),
 .UNSPECIFIED., .F., .T. ) 
 B_SPLINE_CURVE_WITH_KNOTS ( ( 4, 4 ),
 ( 1.273998349525319500, 1.582721459151763500 ),
 .UNSPECIFIED. ) 
 CURVE ( )  GEOMETRIC_REPRESENTATION_ITEM ( )  RATIONAL_B_SPLINE_CURVE ( ( 1.000000000000000000, 0.9920732617573817500, 0.9920732617573817500, 1.000000000000000000 ) ) 
 REPRESENTATION_ITEM ( '' )  );
#7 = VECTOR ( 'NONE', #315, 1000.000000000000000 ) ;
#8 = ORIENTED_EDGE ( 'NONE', *, *, #83, .F. ) ;
#9 = CARTESIAN_POINT ( 'NONE',  ( 44.59961888902903800, 0.3011637777525699700, 1.062462297879056800 ) ) ;
#10 = VERTEX_POINT ( 'NONE', #206 ) ;
#11 = CARTESIAN_POINT ( 'NONE',  ( 44.50000000000000000, 0.0000000000000000000, 0.0000000000000000000 ) ) ;
#12 = DIRECTION ( 'NONE',  ( 1.000000000000000000, 0.0000000000000000000, 0.0000000000000000000 ) ) ;
#13 = EDGE_CURVE ( 'NONE', #72, #138, #145, .T. ) ;
#14 = DIRECTION ( 'NONE',  ( 0.0000000000000000000, 0.0000000000000000000, 1.000000000000000000 ) ) ;
#15 = COLOUR_RGB ( '',1.000000000000000000, 1.000000000000000000, 0.5019607843137254800 ) ;
#16 = VERTEX_POINT ( 'NONE', #282 ) ;
#17 = CARTESIAN_POINT ( 'NONE',  ( 0.0000000000000000000, 0.0000000000000000000, 0.0000000000000000000 ) ) ;
#18 = AXIS2_PLACEMENT_3D ( 'NONE', #189, #286, #46 ) ;
#19 = CARTESIAN_POINT ( 'NONE',  ( 44.78085553669490800, -1.296341706073219600, 0.002714038457255720900 ) ) ;
#20 = FACE_OUTER_BOUND ( 'NONE', #148, .T. ) ;
#21 = FILL_AREA_STYLE ('',( #50 ) ) ;
#22 = EDGE_CURVE ( 'NONE', #72, #82, #280, .T. ) ;
#23 = AXIS2_PLACEMENT_3D ( 'NONE', #45, #214, #14 ) ;
#24 =( NAMED_UNIT ( * ) SI_UNIT ( $, .STERADIAN. ) SOLID_ANGLE_UNIT ( ) );
#25 = AXIS2_PLACEMENT_3D ( 'NONE', #267, #292, #313 ) ;
#26 = DIRECTION ( 'NONE',  ( -0.4999999999999995000, -0.7071067811865470200, 0.5000000000000012200 ) ) ;
#27 = EDGE_LOOP ( 'NONE', ( #241, #272, #38 ) ) ;
#28 = FACE_BOUND ( 'NONE', #312, .T. ) ;
#29 = B_SPLINE_CURVE_WITH_KNOTS ( 'NONE', 3,
 ( #117, #305, #209, #89 ),
 .UNSPECIFIED., .F., .F.,
 ( 4, 4 ),
 ( 0.0005559233194692462500, 0.0007779684040473124000 ),
 .UNSPECIFIED. ) ;
#30 = VECTOR ( 'NONE', #219, 999.9999999999998900 ) ;
#31 = EDGE_CURVE ( 'NONE', #4, #138, #255, .T. ) ;
#32 = PRESENTATION_LAYER_ASSIGNMENT (  '', '', ( #81 ) ) ;
#33 = CARTESIAN_POINT ( 'NONE',  ( 23.97927405783628500, 0.0000000000000000000, 0.0000000000000000000 ) ) ;
#34 = FACE_OUTER_BOUND ( 'NONE', #48, .T. ) ;
#35 = CARTESIAN_POINT ( 'NONE',  ( 44.60479263394573500, 0.4010072920806782600, 1.034488600447707200 ) ) ;
#36 = CONICAL_SURFACE ( 'NONE', #149, 1.000000000000000000, 0.02702044918726478500 ) ;
#37 = PRODUCT_DEFINITION_SHAPE ( 'NONE', 'NONE',  #215 ) ;
#38 = ORIENTED_EDGE ( 'NONE', *, *, #40, .F. ) ;
#39 = DIRECTION ( 'NONE',  ( 0.0000000000000000000, 0.0000000000000000000, 1.000000000000000000 ) ) ;
#40 = EDGE_CURVE ( 'NONE', #82, #138, #276, .T. ) ;
#41 = DIRECTION ( 'NONE',  ( 1.000000000000000000, -0.0000000000000000000, -0.0000000000000000000 ) ) ;
#42 = MECHANICAL_DESIGN_GEOMETRIC_PRESENTATION_REPRESENTATION (  '', ( #288 ), #108 ) ;
#43 = CARTESIAN_POINT ( 'NONE',  ( 19.93431457505068100, 0.0000000000000000000, -24.93431457505076300 ) ) ;
#44 = AXIS2_PLACEMENT_3D ( 'NONE', #146, #222, #53 ) ;
#45 = CARTESIAN_POINT ( 'NONE',  ( 25.99999999999999600, 0.0000000000000000000, 0.0000000000000000000 ) ) ;
#46 = DIRECTION ( 'NONE',  ( 0.0000000000000000000, 1.388545005981255800E-031, -1.000000000000000000 ) ) ;
#47 = CARTESIAN_POINT ( 'NONE',  ( 46.00000000000000000, 0.0000000000000000000, -1.500000000000000000 ) ) ;
#48 = EDGE_LOOP ( 'NONE', ( #190, #120, #314, #95, #74 ) ) ;
#49 = CARTESIAN_POINT ( 'NONE',  ( 44.99182076485966100, -0.4038348191505876100, -1.439729232428896400 ) ) ;
#50 = FILL_AREA_STYLE_COLOUR ( '', #15 ) ;
#51 = VERTEX_POINT ( 'NONE', #79 ) ;
#52 =( NAMED_UNIT ( * ) SI_UNIT ( $, .STERADIAN. ) SOLID_ANGLE_UNIT ( ) );
#53 = DIRECTION ( 'NONE',  ( 1.000000000000000000, 0.0000000000000000000, 0.0000000000000000000 ) ) ;
#54 = ORIENTED_EDGE ( 'NONE', *, *, #123, .F. ) ;
#55 = EDGE_CURVE ( 'NONE', #16, #82, #3, .T. ) ;
#56 = AXIS2_PLACEMENT_3D ( 'NONE', #144, #102, #75 ) ;
#57 = EDGE_LOOP ( 'NONE', ( #175 ) ) ;
#58 = EDGE_LOOP ( 'NONE', ( #179, #151, #297, #268 ) ) ;
#59 = CARTESIAN_POINT ( 'NONE',  ( 44.63874724978067800, 0.7613426268045078200, 0.8468191681188445000 ) ) ;
#60 = DIRECTION ( 'NONE',  ( -1.000000000000000000, -0.0000000000000000000, -0.0000000000000000000 ) ) ;
#61 = CARTESIAN_POINT ( 'NONE',  ( 44.59306375274390200, -0.004139086035773430400, 1.097833028558304900 ) ) ;
#62 = ADVANCED_FACE ( 'NONE', ( #245, #172 ), #36, .T. ) ;
#63 = CARTESIAN_POINT ( 'NONE',  ( 44.87081563081549300, 0.6528670686361119900, 0.9254799436059092400 ) ) ;
#64 = DIRECTION ( 'NONE',  ( 0.0000000000000000000, 0.0000000000000000000, 1.000000000000000000 ) ) ;
#65 = CARTESIAN_POINT ( 'NONE',  ( 44.93705009277091000, -0.9920977254940269700, -1.044489960639079200 ) ) ;
#66 = EDGE_CURVE ( 'NONE', #10, #132, #29, .T. ) ;
#67 = FACE_OUTER_BOUND ( 'NONE', #164, .T. ) ;
#68 = CARTESIAN_POINT ( 'NONE',  ( 44.99832715521439000, -0.2057369156144451000, -1.487625697213010200 ) ) ;
#69 = CARTESIAN_POINT ( 'NONE',  ( 0.0000000000000000000, 0.0000000000000000000, 0.0000000000000000000 ) ) ;
#70 =( LENGTH_UNIT ( ) NAMED_UNIT ( * ) SI_UNIT ( .MILLI., .METRE. ) );
#71 = EDGE_CURVE ( 'NONE', #72, #10, #6, .T. ) ;
#72 = VERTEX_POINT ( 'NONE', #136 ) ;
#73 =( BOUNDED_CURVE ( )  B_SPLINE_CURVE ( 3, ( #191, #163, #161, #141 ),
 .UNSPECIFIED., .F., .F. ) 
 B_SPLINE_CURVE_WITH_KNOTS ( ( 4, 4 ),
 ( 4.880871559899431700, 7.277264189346960100 ),
 .UNSPECIFIED. ) 
 CURVE ( )  GEOMETRIC_REPRESENTATION_ITEM ( )  RATIONAL_B_SPLINE_CURVE ( ( 1.000000000000000000, 0.5760255128772193700, 0.5760255128772193700, 1.000000000000000000 ) ) 
 REPRESENTATION_ITEM ( '' )  );
#74 = ORIENTED_EDGE ( 'NONE', *, *, #66, .F. ) ;
#75 = DIRECTION ( 'NONE',  ( 0.0000000000000000000, 0.0000000000000000000, 1.000000000000000000 ) ) ;
#76 = AXIS2_PLACEMENT_3D ( 'NONE', #182, #212, #188 ) ;
#77 = APPLICATION_PROTOCOL_DEFINITION ( 'draft international standard', 'automotive_design', 1998, #223 ) ;
#78 = TOROIDAL_SURFACE ( 'NONE', #56, 4.000000000000000000, 1.000000000000000400 ) ;
#79 = CARTESIAN_POINT ( 'NONE',  ( 0.0000000000000000000, 0.0000000000000000000, 4.000000000000000000 ) ) ;
#80 = ORIENTED_EDGE ( 'NONE', *, *, #83, .T. ) ;
#81 = STYLED_ITEM ( 'NONE', ( #275 ), #252 ) ;
#82 = VERTEX_POINT ( 'NONE', #158 ) ;
#83 = EDGE_CURVE ( 'NONE', #115, #115, #225, .T. ) ;
#84 = ADVANCED_FACE ( 'NONE', ( #271 ), #218, .T. ) ;
#85 = CARTESIAN_POINT ( 'NONE',  ( 45.25033692042416800, -0.4098132583448285100, 1.297780701535625300 ) ) ;
#86 = AXIS2_PLACEMENT_3D ( 'NONE', #170, #124, #294 ) ;
#87 = DIRECTION ( 'NONE',  ( 0.0000000000000000000, 0.0000000000000000000, 1.000000000000000000 ) ) ;
#88 = UNCERTAINTY_MEASURE_WITH_UNIT (LENGTH_MEASURE( 1.000000000000000100E-005 ), #126, 'distance_accuracy_value', 'NONE');
#89 = CARTESIAN_POINT ( 'NONE',  ( 44.50000000000000000, 0.7378964200356477000, 0.6749139747394296000 ) ) ;
#90 = CYLINDRICAL_SURFACE ( 'NONE', #76, 5.000000000000000900 ) ;
#91 = EDGE_CURVE ( 'NONE', #258, #258, #205, .T. ) ;
#92 = DIRECTION ( 'NONE',  ( -1.000000000000000000, -0.0000000000000000000, -0.0000000000000000000 ) ) ;
#93 = CARTESIAN_POINT ( 'NONE',  ( 50.11250880381793100, 3.067569663770306100E-030, -16.84809180242319100 ) ) ;
#94 = CARTESIAN_POINT ( 'NONE',  ( 44.61966941965425100, -0.5962036187966588400, 0.9531197437955238900 ) ) ;
#95 = ORIENTED_EDGE ( 'NONE', *, *, #202, .F. ) ;
#96 = DIRECTION ( 'NONE',  ( -1.000000000000000000, -0.0000000000000000000, -0.0000000000000000000 ) ) ;
#97 = CARTESIAN_POINT ( 'NONE',  ( 44.68809548065541300, -1.063933349116087800, 0.5656842937394902500 ) ) ;
#98 = DIRECTION ( 'NONE',  ( 1.000000000000000000, 0.0000000000000000000, 0.0000000000000000000 ) ) ;
#99 = FACE_OUTER_BOUND ( 'NONE', #256, .T. ) ;
#100 = CARTESIAN_POINT ( 'NONE',  ( 45.00000000000080300, -6.235659473633412200E-013, -1.500000000005880200 ) ) ;
#101 = PRODUCT_RELATED_PRODUCT_CATEGORY ( 'part', '', ( #254 ) ) ;
#102 = DIRECTION ( 'NONE',  ( -1.000000000000000000, -0.0000000000000000000, -0.0000000000000000000 ) ) ;
#103 = AXIS2_PLACEMENT_3D ( 'NONE', #184, #60, #112 ) ;
#104 = PRESENTATION_STYLE_ASSIGNMENT (( #220 ) ) ;
#105 =( GEOMETRIC_REPRESENTATION_CONTEXT ( 3 ) GLOBAL_UNCERTAINTY_ASSIGNED_CONTEXT ( ( #174 ) ) GLOBAL_UNIT_ASSIGNED_CONTEXT ( ( #251, #193, #24 ) ) REPRESENTATION_CONTEXT ( 'NONE', 'WORKASPACE' ) );
#106 = FACE_OUTER_BOUND ( 'NONE', #109, .T. ) ;
#107 = ORIENTED_EDGE ( 'NONE', *, *, #202, .T. ) ;
#108 =( GEOMETRIC_REPRESENTATION_CONTEXT ( 3 ) GLOBAL_UNCERTAINTY_ASSIGNED_CONTEXT ( ( #307 ) ) GLOBAL_UNIT_ASSIGNED_CONTEXT ( ( #70, #125, #52 ) ) REPRESENTATION_CONTEXT ( 'NONE', 'WORKASPACE' ) );
#109 = EDGE_LOOP ( 'NONE', ( #291 ) ) ;
#110 = AXIS2_PLACEMENT_3D ( 'NONE', #167, #26, #248 ) ;
#111 = CARTESIAN_POINT ( 'NONE',  ( 45.00000000000080300, -6.235659473633412200E-013, -1.500000000005880200 ) ) ;
#112 = DIRECTION ( 'NONE',  ( 0.0000000000000000000, 0.0000000000000000000, 1.000000000000000000 ) ) ;
#113 = ORIENTED_EDGE ( 'NONE', *, *, #55, .T. ) ;
#114 = DIRECTION ( 'NONE',  ( 0.0000000000000000000, 0.0000000000000000000, -1.000000000000000000 ) ) ;
#115 = VERTEX_POINT ( 'NONE', #298 ) ;
#116 = ORIENTED_EDGE ( 'NONE', *, *, #299, .T. ) ;
#117 = CARTESIAN_POINT ( 'NONE',  ( 44.63874724978067800, 0.7613426268045078200, 0.8468191681188445000 ) ) ;
#118 = CARTESIAN_POINT ( 'NONE',  ( 44.87319801135610900, -1.238013936061122000, -0.6025964640815084600 ) ) ;
#119 = CARTESIAN_POINT ( 'NONE',  ( 44.65040483806051000, -0.8501586525858199100, 0.7815094765671412000 ) ) ;
#120 = ORIENTED_EDGE ( 'NONE', *, *, #22, .T. ) ;
#121 = CARTESIAN_POINT ( 'NONE',  ( 43.50000000000000000, -1.900403171413848300E-031, -2.638795333017639800E-062 ) ) ;
#122 = CARTESIAN_POINT ( 'NONE',  ( 44.63891014424900300, -0.7690322622602384600, 0.8461336112260350300 ) ) ;
#123 = EDGE_CURVE ( 'NONE', #317, #132, #290, .T. ) ;
#124 = DIRECTION ( 'NONE',  ( -0.9659258262890697600, 0.0000000000000000000, -0.2588190451025154700 ) ) ;
#125 =( NAMED_UNIT ( * ) PLANE_ANGLE_UNIT ( ) SI_UNIT ( $, .RADIAN. ) );
#126 =( LENGTH_UNIT ( ) NAMED_UNIT ( * ) SI_UNIT ( .MILLI., .METRE. ) );
#127 = CIRCLE ( 'NONE', #207, 4.000000000000000000 ) ;
#128 = CLOSED_SHELL ( 'NONE', ( #185, #208, #234, #183, #302, #155, #177, #62, #84, #301 ) ) ;
#129 = ORIENTED_EDGE ( 'NONE', *, *, #299, .F. ) ;
#130 = EDGE_CURVE ( 'NONE', #10, #4, #228, .T. ) ;
#131 = ORIENTED_EDGE ( 'NONE', *, *, #233, .T. ) ;
#132 = VERTEX_POINT ( 'NONE', #262 ) ;
#133 = SURFACE_STYLE_FILL_AREA ( #21 ) ;
#134 = EDGE_CURVE ( 'NONE', #295, #295, #156, .T. ) ;
#135 = VECTOR ( 'NONE', #153, 1000.000000000000100 ) ;
#136 = CARTESIAN_POINT ( 'NONE',  ( 45.32248784048459100, 0.4063396978812116000, 1.028509802057256700 ) ) ;
#137 = CARTESIAN_POINT ( 'NONE',  ( 44.61906564423011900, 0.5900160040037965000, 0.9563450108893273300 ) ) ;
#138 = VERTEX_POINT ( 'NONE', #47 ) ;
#139 = ORIENTED_EDGE ( 'NONE', *, *, #233, .F. ) ;
#140 = CARTESIAN_POINT ( 'NONE',  ( 44.62804858033734900, 0.6786186418469709600, 0.9068062556988745200 ) ) ;
#141 = CARTESIAN_POINT ( 'NONE',  ( 43.85109107093768400, 0.0000000000000000000, -1.017538079163850900 ) ) ;
#142 = ORIENTED_EDGE ( 'NONE', *, *, #66, .T. ) ;
#143 = CARTESIAN_POINT ( 'NONE',  ( 81.50000000000001400, 5.086430705587371200E-030, 7.062737954513060200E-061 ) ) ;
#144 = CARTESIAN_POINT ( 'NONE',  ( 1.000000000000000900, 0.0000000000000000000, 0.0000000000000000000 ) ) ;
#145 =( BOUNDED_CURVE ( )  B_SPLINE_CURVE ( 3, ( #176, #85, #230, #257, #259, #303, #5 ),
 .UNSPECIFIED., .F., .T. ) 
 B_SPLINE_CURVE_WITH_KNOTS ( ( 4, 3, 4 ),
 ( 2.822910922188981900, 4.553048114684283800, 6.283185307179586200 ),
 .UNSPECIFIED. ) 
 CURVE ( )  GEOMETRIC_REPRESENTATION_ITEM ( )  RATIONAL_B_SPLINE_CURVE ( ( 1.000000000000000000, 0.7657252705875743400, 0.7657252705875743400, 1.000000000000000000, 0.7657252705875743400, 0.7657252705875743400, 1.000000000000000000 ) ) 
 REPRESENTATION_ITEM ( '' )  );
#146 = CARTESIAN_POINT ( 'NONE',  ( 0.0000000000000000000, 0.0000000000000000000, 0.0000000000000000000 ) ) ;
#147 = SURFACE_SIDE_STYLE ('',( #217 ) ) ;
#148 = EDGE_LOOP ( 'NONE', ( #194, #142, #54, #131 ) ) ;
#149 = AXIS2_PLACEMENT_3D ( 'NONE', #11, #240, #239 ) ;
#150 = FACE_OUTER_BOUND ( 'NONE', #57, .T. ) ;
#151 = ORIENTED_EDGE ( 'NONE', *, *, #71, .T. ) ;
#152 = AXIS2_PLACEMENT_3D ( 'NONE', #17, #98, #246 ) ;
#153 = DIRECTION ( 'NONE',  ( 0.2588190451025154100, 1.700613374771939500E-031, -0.9659258262890696400 ) ) ;
#154 = CARTESIAN_POINT ( 'NONE',  ( 44.59991728635760900, -0.3079619453548516600, 1.060911591175753000 ) ) ;
#155 = ADVANCED_FACE ( 'NONE', ( #67, #106 ), #90, .T. ) ;
#156 = CIRCLE ( 'NONE', #171, 1.500000000000000000 ) ;
#157 = ORIENTED_EDGE ( 'NONE', *, *, #134, .F. ) ;
#158 = CARTESIAN_POINT ( 'NONE',  ( 45.44392590931408200, 0.0000000000000000000, 0.5752967592125455300 ) ) ;
#159 = CARTESIAN_POINT ( 'NONE',  ( -79.66162912480135100, -1.708330507121998800E-029, -1.500000000000000000 ) ) ;
#160 = CARTESIAN_POINT ( 'NONE',  ( 41.99999999999999300, 0.0000000000000000000, -0.2030950475577213100 ) ) ;
#161 = CARTESIAN_POINT ( 'NONE',  ( 42.29821129686523300, 1.068374742435299400, -1.059507802787426500 ) ) ;
#162 = CARTESIAN_POINT ( 'NONE',  ( 44.91367186812305300, -1.110602670857506100, -0.8804169829575588800 ) ) ;
#163 = CARTESIAN_POINT ( 'NONE',  ( 42.67372066497235700, 1.495379220269329000, -0.08012291093338304300 ) ) ;
#164 = EDGE_LOOP ( 'NONE', ( #8 ) ) ;
#165 = DIRECTION ( 'NONE',  ( -1.000000000000000000, -0.0000000000000000000, -0.0000000000000000000 ) ) ;
#166 = ORIENTED_EDGE ( 'NONE', *, *, #123, .T. ) ;
#167 = CARTESIAN_POINT ( 'NONE',  ( 17.79521521044927100, 3.025143332682993100, -22.79521521044934600 ) ) ;
#168 = CARTESIAN_POINT ( 'NONE',  ( 44.50000000000000000, 8.766868405486558900E-032, -0.9999999999999986700 ) ) ;
#169 = CARTESIAN_POINT ( 'NONE',  ( 23.97927405783628500, 0.0000000000000000000, 5.000000000000000000 ) ) ;
#170 = CARTESIAN_POINT ( 'NONE',  ( 45.00613424500792100, -5.000000000000000900, 2.209157493533323400 ) ) ;
#171 = AXIS2_PLACEMENT_3D ( 'NONE', #270, #96, #64 ) ;
#172 = FACE_BOUND ( 'NONE', #201, .T. ) ;
#173 = PRODUCT_DEFINITION_CONTEXT ( 'detailed design', #223, 'design' ) ;
#174 = UNCERTAINTY_MEASURE_WITH_UNIT (LENGTH_MEASURE( 1.000000000000000100E-005 ), #251, 'distance_accuracy_value', 'NONE');
#175 = ORIENTED_EDGE ( 'NONE', *, *, #221, .T. ) ;
#176 = CARTESIAN_POINT ( 'NONE',  ( 45.32248784048459100, 0.4063396978812116000, 1.028509802057256700 ) ) ;
#177 = ADVANCED_FACE ( 'NONE', ( #99, #28 ), #283, .T. ) ;
#178 = SHAPE_DEFINITION_REPRESENTATION ( #37, #252 ) ;
#179 = ORIENTED_EDGE ( 'NONE', *, *, #13, .F. ) ;
#180 = PRESENTATION_LAYER_ASSIGNMENT (  '', '', ( #288 ) ) ;
#181 = CARTESIAN_POINT ( 'NONE',  ( 45.32248784048459100, 0.4063396978812116000, 1.028509802057256700 ) ) ;
#182 = CARTESIAN_POINT ( 'NONE',  ( -79.66162912480135100, 0.0000000000000000000, 0.0000000000000000000 ) ) ;
#183 = ADVANCED_FACE ( 'NONE', ( #150 ), #308, .F. ) ;
#184 = CARTESIAN_POINT ( 'NONE',  ( 44.50000000000000000, 0.0000000000000000000, 0.0000000000000000000 ) ) ;
#185 = ADVANCED_FACE ( 'NONE', ( #20 ), #249, .T. ) ;
#186 = DIRECTION ( 'NONE',  ( 0.1956488079738473700, -0.6546536707079768600, -0.7301712917987014400 ) ) ;
#187 = CARTESIAN_POINT ( 'NONE',  ( 44.61174262020777800, -0.5034556303529125200, 0.9965239631348364900 ) ) ;
#188 = DIRECTION ( 'NONE',  ( 0.0000000000000000000, 0.0000000000000000000, 1.000000000000000000 ) ) ;
#189 = CARTESIAN_POINT ( 'NONE',  ( 19.93431457505068100, 0.0000000000000000000, -24.93431457505076300 ) ) ;
#190 = ORIENTED_EDGE ( 'NONE', *, *, #71, .F. ) ;
#191 = CARTESIAN_POINT ( 'NONE',  ( 44.50000000000000000, 0.7378964200356477000, 0.6749139747394296000 ) ) ;
#192 = CARTESIAN_POINT ( 'NONE',  ( 44.81331284492023300, -1.312694119515748000, -0.2047247711352765700 ) ) ;
#193 =( NAMED_UNIT ( * ) PLANE_ANGLE_UNIT ( ) SI_UNIT ( $, .RADIAN. ) );
#194 = ORIENTED_EDGE ( 'NONE', *, *, #130, .F. ) ;
#195 = APPLICATION_CONTEXT ( 'automotive_design' ) ;
#196 = PLANE ( 'NONE',  #110 ) ;
#197 = PRODUCT_CONTEXT ( 'NONE', #195, 'mechanical' ) ;
#198 =( NAMED_UNIT ( * ) SI_UNIT ( $, .STERADIAN. ) SOLID_ANGLE_UNIT ( ) );
#199 = LINE ( 'NONE', #143, #7 ) ;
#200 = VECTOR ( 'NONE', #12, 1000.000000000000000 ) ;
#201 = EDGE_LOOP ( 'NONE', ( #107, #116, #166 ) ) ;
#202 = EDGE_CURVE ( 'NONE', #132, #16, #73, .T. ) ;
#203 = FACE_OUTER_BOUND ( 'NONE', #27, .T. ) ;
#204 = PRODUCT_DEFINITION_FORMATION_WITH_SPECIFIED_SOURCE ( 'ANY', '', #254, .NOT_KNOWN. ) ;
#205 = CIRCLE ( 'NONE', #309, 5.000000000000000000 ) ;
#206 = CARTESIAN_POINT ( 'NONE',  ( 44.63874724978067800, 0.7613426268045078200, 0.8468191681188445000 ) ) ;
#207 = AXIS2_PLACEMENT_3D ( 'NONE', #69, #165, #277 ) ;
#208 = ADVANCED_FACE ( 'NONE', ( #278 ), #242, .F. ) ;
#209 = CARTESIAN_POINT ( 'NONE',  ( 44.54548706477590500, 0.7466340002075967400, 0.7327578438968350700 ) ) ;
#210 = AXIS2_PLACEMENT_3D ( 'NONE', #160, #41, #114 ) ;
#211 = ORIENTED_EDGE ( 'NONE', *, *, #91, .F. ) ;
#212 = DIRECTION ( 'NONE',  ( -1.000000000000000000, -0.0000000000000000000, -0.0000000000000000000 ) ) ;
#213 = CARTESIAN_POINT ( 'NONE',  ( 44.96627907704906600, -0.7674203421096027500, -1.253535639443560400 ) ) ;
#214 = DIRECTION ( 'NONE',  ( -1.000000000000000000, -0.0000000000000000000, -0.0000000000000000000 ) ) ;
#215 = PRODUCT_DEFINITION ( 'UNKNOWN', '', #204, #173 ) ;
#216 = CARTESIAN_POINT ( 'NONE',  ( 44.94776272224201100, -0.9221522028204112200, -1.120697757557291800 ) ) ;
#217 = SURFACE_STYLE_FILL_AREA ( #2 ) ;
#218 = CYLINDRICAL_SURFACE ( 'NONE', #210, 1.296904952442285300 ) ;
#219 = DIRECTION ( 'NONE',  ( 0.7071067811865479100, 1.963699179424119300E-031, -0.7071067811865472400 ) ) ;
#220 = SURFACE_STYLE_USAGE ( .BOTH. , #316 ) ;
#221 = EDGE_CURVE ( 'NONE', #51, #51, #127, .T. ) ;
#222 = DIRECTION ( 'NONE',  ( 0.0000000000000000000, 0.0000000000000000000, 1.000000000000000000 ) ) ;
#223 = APPLICATION_CONTEXT ( 'automotive_design' ) ;
#224 = ORIENTED_EDGE ( 'NONE', *, *, #221, .F. ) ;
#225 = CIRCLE ( 'NONE', #281, 5.000000000000000900 ) ;
#226 = EDGE_LOOP ( 'NONE', ( #113, #253, #236, #139, #129 ) ) ;
#227 = MECHANICAL_DESIGN_GEOMETRIC_PRESENTATION_REPRESENTATION (  '', ( #81 ), #105 ) ;
#228 = B_SPLINE_CURVE_WITH_KNOTS ( 'NONE', 3,
 ( #284, #140, #137, #35, #9, #266, #61, #306, #154, #187, #94, #122, #119, #97, #247, #19, #192, #269, #118, #310, #162, #65, #216, #213, #244, #287, #49, #68, #243, #100 ),
 .UNSPECIFIED., .F., .F.,
 ( 4, 2, 2, 2, 2, 2, 2, 2, 2, 2, 2, 2, 2, 2, 4 ),
 ( 5.219317927141964900E-005, 0.0003579018600271653000, 0.0006636105407829107700, 0.0009693192215386561900, 0.001275027902294401500, 0.001580736583050146700, 0.001886445263805892300, 0.002497862625317382900, 0.003109279986828873800, 0.003414988667584621100, 0.003720697348340368100, 0.004026406029096115900, 0.004332114709851862800, 0.004637823390607610600, 0.004943532071363357500 ),
 .UNSPECIFIED. ) ;
#229 = COLOUR_RGB ( '',1.000000000000000000, 1.000000000000000000, 0.5019607843137254800 ) ;
#230 = CARTESIAN_POINT ( 'NONE',  ( 45.36999247611603900, -1.144112981861185900, 0.8512200882856494300 ) ) ;
#231 = EDGE_LOOP ( 'NONE', ( #224 ) ) ;
#232 = CARTESIAN_POINT ( 'NONE',  ( 47.33675347420878400, -6.333524472795152100, -6.488831882941536100 ) ) ;
#233 = EDGE_CURVE ( 'NONE', #317, #4, #311, .T. ) ;
#234 = ADVANCED_FACE ( 'NONE', ( #34 ), #196, .F. ) ;
#235 = DIRECTION ( 'NONE',  ( -1.000000000000000000, -0.0000000000000000000, -0.0000000000000000000 ) ) ;
#236 = ORIENTED_EDGE ( 'NONE', *, *, #31, .F. ) ;
#237 = DIRECTION ( 'NONE',  ( 0.7071067811865487900, -0.0000000000000000000, 0.7071067811865463500 ) ) ;
#238 = CARTESIAN_POINT ( 'NONE',  ( 45.10055020690002400, 0.5335872591677278700, 0.9865273954229794000 ) ) ;
#239 = DIRECTION ( 'NONE',  ( 0.0000000000000000000, 0.0000000000000000000, 1.000000000000000000 ) ) ;
#240 = DIRECTION ( 'NONE',  ( -1.000000000000000000, -0.0000000000000000000, -0.0000000000000000000 ) ) ;
#241 = ORIENTED_EDGE ( 'NONE', *, *, #22, .F. ) ;
#242 = PLANE ( 'NONE',  #18 ) ;
#243 = CARTESIAN_POINT ( 'NONE',  ( 45.00000000000000000, -0.1021232838660639200, -1.499999999999927600 ) ) ;
#244 = CARTESIAN_POINT ( 'NONE',  ( 44.97410018597513900, -0.6831395443134435900, -1.310261446062247000 ) ) ;
#245 = FACE_OUTER_BOUND ( 'NONE', #260, .T. ) ;
#246 = DIRECTION ( 'NONE',  ( 0.0000000000000000000, 0.0000000000000000000, -1.000000000000000000 ) ) ;
#247 = CARTESIAN_POINT ( 'NONE',  ( 44.71829471527475200, -1.172136330699866000, 0.3876296099982343700 ) ) ;
#248 = DIRECTION ( 'NONE',  ( 0.0000000000000000000, -0.5773502691896269500, -0.8164965809277251500 ) ) ;
#249 = CONICAL_SURFACE ( 'NONE', #25, 1.500000000000000000, 0.7853981633974479500 ) ;
#250 =( NAMED_UNIT ( * ) PLANE_ANGLE_UNIT ( ) SI_UNIT ( $, .RADIAN. ) );
#251 =( LENGTH_UNIT ( ) NAMED_UNIT ( * ) SI_UNIT ( .MILLI., .METRE. ) );
#252 = ADVANCED_BREP_SHAPE_REPRESENTATION ( 'U10.B03.001.020', ( #261, #44 ), #263 ) ;
#253 = ORIENTED_EDGE ( 'NONE', *, *, #40, .T. ) ;
#254 = PRODUCT ( 'U10.B03.001.020', 'U10.B03.001.020', '', ( #197 ) ) ;
#255 = LINE ( 'NONE', #159, #200 ) ;
#256 = EDGE_LOOP ( 'NONE', ( #211 ) ) ;
#257 = CARTESIAN_POINT ( 'NONE',  ( 45.59735768876299700, -1.280475865564620500, 0.002681562813484032900 ) ) ;
#258 = VERTEX_POINT ( 'NONE', #169 ) ;
#259 = CARTESIAN_POINT ( 'NONE',  ( 45.82472290140994200, -1.416838749268055000, -0.8458569626586816000 ) ) ;
#260 = EDGE_LOOP ( 'NONE', ( #157 ) ) ;
#261 = MANIFOLD_SOLID_BREP ( 'Schnitt-Linear austragen3', #128 ) ;
#262 = CARTESIAN_POINT ( 'NONE',  ( 44.50000000000000000, 0.7378964200356477000, 0.6749139747394296000 ) ) ;
#263 =( GEOMETRIC_REPRESENTATION_CONTEXT ( 3 ) GLOBAL_UNCERTAINTY_ASSIGNED_CONTEXT ( ( #88 ) ) GLOBAL_UNIT_ASSIGNED_CONTEXT ( ( #126, #250, #198 ) ) REPRESENTATION_CONTEXT ( 'NONE', 'WORKASPACE' ) );
#264 = EDGE_LOOP ( 'NONE', ( #80 ) ) ;
#265 = ORIENTED_EDGE ( 'NONE', *, *, #134, .T. ) ;
#266 = CARTESIAN_POINT ( 'NONE',  ( 44.59378601162329400, 0.09992222028719625900, 1.093959525508524600 ) ) ;
#267 = CARTESIAN_POINT ( 'NONE',  ( 45.00000000000000000, 0.0000000000000000000, 0.0000000000000000000 ) ) ;
#268 = ORIENTED_EDGE ( 'NONE', *, *, #31, .T. ) ;
#269 = CARTESIAN_POINT ( 'NONE',  ( 44.85877539382322300, -1.265235046594771700, -0.5054925433688842700 ) ) ;
#270 = CARTESIAN_POINT ( 'NONE',  ( 25.99999999999999600, 0.0000000000000000000, 0.0000000000000000000 ) ) ;
#271 = FACE_OUTER_BOUND ( 'NONE', #58, .T. ) ;
#272 = ORIENTED_EDGE ( 'NONE', *, *, #13, .T. ) ;
#273 = PLANE ( 'NONE',  #86 ) ;
#274 = FILL_AREA_STYLE_COLOUR ( '', #229 ) ;
#275 = PRESENTATION_STYLE_ASSIGNMENT (( #293 ) ) ;
#276 = LINE ( 'NONE', #93, #135 ) ;
#277 = DIRECTION ( 'NONE',  ( 0.0000000000000000000, 0.0000000000000000000, 1.000000000000000000 ) ) ;
#278 = FACE_OUTER_BOUND ( 'NONE', #226, .T. ) ;
#279 = FACE_OUTER_BOUND ( 'NONE', #264, .T. ) ;
#280 = LINE ( 'NONE', #232, #300 ) ;
#281 = AXIS2_PLACEMENT_3D ( 'NONE', #285, #92, #39 ) ;
#282 = CARTESIAN_POINT ( 'NONE',  ( 43.85109107093768400, 0.0000000000000000000, -1.017538079163850900 ) ) ;
#283 = CONICAL_SURFACE ( 'NONE', #23, 1.500000000000000000, 1.047197551196593600 ) ;
#284 = CARTESIAN_POINT ( 'NONE',  ( 44.63874724978067800, 0.7613426268045078200, 0.8468191681188445000 ) ) ;
#285 = CARTESIAN_POINT ( 'NONE',  ( 1.000000000000000900, 0.0000000000000000000, 0.0000000000000000000 ) ) ;
#286 = DIRECTION ( 'NONE',  ( 1.388545005981251000E-031, -1.000000000000000000, -1.388545005981255800E-031 ) ) ;
#287 = CARTESIAN_POINT ( 'NONE',  ( 44.98695002068286900, -0.5004818088089769700, -1.403934349893199300 ) ) ;
#288 = STYLED_ITEM ( 'NONE', ( #104 ), #261 ) ;
#289 = FACE_OUTER_BOUND ( 'NONE', #231, .T. ) ;
#290 = CIRCLE ( 'NONE', #103, 1.000000000000000000 ) ;
#291 = ORIENTED_EDGE ( 'NONE', *, *, #91, .T. ) ;
#292 = DIRECTION ( 'NONE',  ( 1.000000000000000000, 0.0000000000000000000, 0.0000000000000000000 ) ) ;
#293 = SURFACE_STYLE_USAGE ( .BOTH. , #147 ) ;
#294 = DIRECTION ( 'NONE',  ( -0.2588190451025154100, 0.0000000000000000000, 0.9659258262890696400 ) ) ;
#295 = VERTEX_POINT ( 'NONE', #1 ) ;
#296 = APPLICATION_PROTOCOL_DEFINITION ( 'draft international standard', 'automotive_design', 1998, #195 ) ;
#297 = ORIENTED_EDGE ( 'NONE', *, *, #130, .T. ) ;
#298 = CARTESIAN_POINT ( 'NONE',  ( 1.000000000000000900, 0.0000000000000000000, 5.000000000000000900 ) ) ;
#299 = EDGE_CURVE ( 'NONE', #16, #317, #199, .T. ) ;
#300 = VECTOR ( 'NONE', #186, 1000.000000000000000 ) ;
#301 = ADVANCED_FACE ( 'NONE', ( #203 ), #273, .F. ) ;
#302 = ADVANCED_FACE ( 'NONE', ( #289, #279 ), #78, .T. ) ;
#303 = CARTESIAN_POINT ( 'NONE',  ( 45.99999999999999300, -0.8594256601140052300, -1.500000000000006700 ) ) ;
#304 = VECTOR ( 'NONE', #237, 1000.000000000000000 ) ;
#305 = CARTESIAN_POINT ( 'NONE',  ( 44.59181897978459800, 0.7543491613139438100, 0.7900006443780128700 ) ) ;
#306 = CARTESIAN_POINT ( 'NONE',  ( 44.59617021484758900, -0.2080847159316446300, 1.081090196967305500 ) ) ;
#307 = UNCERTAINTY_MEASURE_WITH_UNIT (LENGTH_MEASURE( 1.000000000000000100E-005 ), #70, 'distance_accuracy_value', 'NONE');
#308 = PLANE ( 'NONE',  #152 ) ;
#309 = AXIS2_PLACEMENT_3D ( 'NONE', #33, #235, #87 ) ;
#310 = CARTESIAN_POINT ( 'NONE',  ( 44.90070844603076200, -1.160721084699709800, -0.7904675453983967000 ) ) ;
#311 = LINE ( 'NONE', #121, #30 ) ;
#312 = EDGE_LOOP ( 'NONE', ( #265 ) ) ;
#313 = DIRECTION ( 'NONE',  ( 0.0000000000000000000, 0.0000000000000000000, -1.000000000000000000 ) ) ;
#314 = ORIENTED_EDGE ( 'NONE', *, *, #55, .F. ) ;
#315 = DIRECTION ( 'NONE',  ( 0.9996349698728535000, 1.350523600755731800E-031, 0.02701716134791495500 ) ) ;
#316 = SURFACE_SIDE_STYLE ('',( #133 ) ) ;
#317 = VERTEX_POINT ( 'NONE', #168 ) ;
ENDSEC;
END-ISO-10303-21;
